PrimaNota.ru - самый крупный в мире бесплатный архив песенных текстов, аккордов, табулатур и нот


Horna - Vapise Vapahtaja - текст песни, таба, видео

Регистрация Запомнить меня
Войти через:  Facebook Google Twitter Vk Yandex Mail.ru

Horna - Vapise Vapahtaja - текст песни, таба, видео

Печатать
Просмотров: 95
-----------------------------------------------------------------------------
                             Vapise Vapahtaja - Horna
-----------------------------------------------------------------------------


    Band:  Horna
    Album: Sotahuuto
    Song:  Vapise Vapahtaja
    Copyright (c) Deviant Records
    Version 1.0 - 28/12/2012
    Transcribed By: ulfskeptr
    Email: malignitas-odium@hotmail.com

    http://horna666.com/



.  - palm mute           ,  - slight palm mute    
\  - slide down to       /  - slide up to
~  - vibrato             b  - bend
h  - hammer on           p  - pull off                  
[] - second time         *  - see comment
t  - tap                 ph - pinched harmonic
x - staccato             () - ghost note, sustained note
"  - tremolo note        <> - trill

Suffixes for bend
f  - full bend    h - half bend
q  - quarter bend t - tap bend
^  - hold bend    r - release bend
~  - vibrato bend


Tuning: D G C F A d

Riff 1                  Fig. 1          Fig. 2
e|---------------------|--------------|-------------------------------------|
B|---------------------|--------------|-------------------------------------|
G|---------------------|--------------|-----5--8----------------------------|
D|---------------------|--------------|-----5--8----------------------------|
A|-0-5-7--0-7-8--0-5-7-|-0-2-3-5-3-2--|-0-2-3--6----------------------------|
E|---------------------|--------------|-------------------------------------|


Riff 2
e|--------------------------------------------------------------------------
B|--------------------------------------------------------------------------
G|-------------------------------------------------5--5-5-5-5-5-5-----------
D|-7--7-7-7-7-7-7-7-7-7-7-7-7-7-7--7--7-7-7-7-7-7--5--5-5-5-5-5-5-----------
A|-7--7-7-7-7-7-7-7-7-7-7-7-7-7-7--7--7-7-7-7-7-7--3--3-3-3-3-3-3-----------
E|-5--5-5-5-5-5-5-5-5-5-5-5-5-5-5--5--5-5-5-5-5-5---------------------------

----------------------------------------------------------------------------|
----------------------------------------------------------------------------|
------------------5--5-5-5-5-5-5--7-------5--7------------------------------|
--6--6-6-6-6-6-6--5--5-5-5-5-5-5--7-7--7--5--7------------------------------|
--6--6-6-6-6-6-6--3--3-3-3-3-3-3--5-7--7--3--5------------------------------|
--4--4-4-4-4-4-4--------------------5--5------------------------------------|

Bridge
e|--------------------------------------------------------------------------|
B|--------------------------------------------------------------------------|
G|--8--9--10---5-5-5-5-5-5-5-5----------------------------------------------|
D|--8--9--10---5-5-5-5-5-5-5-5----------------------------------------------|
A|--6--7--8----3-3-3-3-3-3-3-3----------------------------------------------|
E|--------------------------------------------------------------------------|

Riff 3                  Fig. 1 x 3      Fig. 4 x 1
e|---------------------------------|----------------------------------------|
B|---------------------------------|----------------------------------------|
G|-----7---5-7-----5-7---7-----3-5-|-----7---5-7-----5-7--------------------|
D|-----7---5-7-----5-7---7-----3-5-|-----7---5-7-----5-7---5--8-------------|
A|-0-0---0-----0-0-----0---0-0-----|-0-0---0-----0-0-----0-5--8-------------|
E|---------------------------------|-----------------------3--6-------------|

End...
e|-----|
B|-----|
G|--7--|
D|--7--|
A|--5--|
E|-----|


Structure:

Riff 1 - 4x
Riff 2 - 2x
Bridge - 1x
Riff 1 - 4x
Riff 2 - 2x
Bridge - 1x
Riff 3 - 2x
Riff 2 - 2x
Bridge - 1x
Riff 1 - 4x
Riff 2 - 2x
Bridge - 1x
Riff 3 - 2x
Riff 1 - 4x
End...
Добавлено: 20.09.2013
Другие материалы по этой песне:
  • Аккорды и текст

Страница создана 20.08.2013
http://primanota.ru/horna/vapise-vapahtaja-chords.htm
Привет, Гость.
Предлагаем пройти революционный курс по гитаре.
Подарок от PrimaNota.Ru, забирай!