PrimaNota.ru - самый крупный в мире бесплатный архив песенных текстов, аккордов, табулатур и нот


Horna - Sotahuuto - текст песни, таба, видео

Регистрация Запомнить меня
Войти через:  Facebook Google Twitter Vk Yandex Mail.ru

Horna - Sotahuuto - текст песни, таба, видео

Печатать
Просмотров: 66
Sotahuuto

by Horna

D-Tuning

Riff 1

|--------------------------------------------|
|--------------------------------------------|
|--------------------------------------------|
|-----------------------3--------------------|
|--5--------------------1--------------------|
|--3--0--0--0--0--0--0-----0--0--0--0--0--0--|

|----------------------------------|
|----------------------------------|
|----------------------------------|
|-----------------------3--7----6--|
|--5--------------------1--5----4--|
|--3--0--0--0--0--0--0-------------|



Riff 2

|------------------------|------------------------|
|------------------------|------------------------|
|------------------------|------------------------|
|--4--4----4--4--4----4--|--4--4----4--4--4----4--|
|--2--2----2--2--2----2--|--2--2----2--2--2----2--|
|------------------------|------------------------|

|------------------------|------------------------|
|------------------------|------------------------|
|------------------------|------------------------|
|--3--3----3--3--3----3--|--3--3----3--3----------|
|--1--1----1--1--1----1--|--1--1----1--1----------|
|------------------------|------------------------|

Riff 3

|------------------------|------------------------|
|------------------------|------------------------|
|------------------------|------------------------|
|------------------------|--5--5----5--7--7----7--|
|--2--2----2--2--2----2--|--3--3----3--5--5----5--|
|--0--0----0--0--0----0--|------------------------|

|------------------------|------------------------|
|------------------------|------------------------|
|------------------------|------------------------|
|------------------------|-------------5--5----5--|
|--2--2----2--2--2----2--|--4--4----4--3--3----3--|
|--0--0----0--0--0----0--|--2--2----2-------------|

|------------------------|------------------------|
|------------------------|------------------------|
|------------------------|------------------------|
|------------------------|--5--5----5--7--7----7--|
|--2--2----2--2--2----2--|--3--3----3--5--5----5--|
|--0--0----0--0--0----0--|------------------------|

|------------------------|------------------------|
|------------------------|------------------------|
|------------------------|------------------------|
|------------------------|--4--4----4--5--5----5--|
|--2--2----2--2--2----2--|--2--2----2--3--3----3--|
|--0--0----0--0--0----0--|------------------------|

Riff 4

|-------------------------|-------------------------|
|-------------------------|-------------------------|
|-------------------------|-------------------------|
|-------------------------|-------------------------|
|--5--5----5--5--5--5--5--|--4--4----4--4--4--4--4--|
|--3--3----3--3--3--3--3--|--2--2----2--2--2--2--2--|

|-------------------------|-------------------------|
|-------------------------|-------------------------|
|-------------------------|-------------------------|
|-------------------------|-------------------------|
|--3--3----3--3--3--3--3--|--2--2----2--2--2--2--2--|
|--1--1----1--1--1--1--1--|--0--0----0--0--0--0--0--|

|-------------------------|-----------------------|
|-------------------------|-----------------------|
|-------------------------|-----------------------|
|-------------------------|-----------------------|
|--4--4----4--4--4--4--4--|--3--3----3--5----4----|
|--2--2----2--2--2--2--2--|--1--1----1--3----2----|

Ending

|-------------------|-------------------|
|-------------------|-------------------|
|-------------------|-------------------|
|--5----------------|--4----------------|
|--5----------------|--4----------------|
|--3----------------|--2----------------|

|-------------------|-------------------|
|-------------------|-------------------|
|-------------------|-------------------|
|--3----------------|--2----------------|
|--3----------------|--2----------------|
|--1----------------|--0----------------|
Добавлено: 03.09.2013
Другие материалы по этой песне:
  • Аккорды и текст

Страница создана 03.09.2013
http://primanota.ru/horna/sotahuuto-chords.htm
Привет, Гость.
Предлагаем пройти революционный курс по гитаре.
Подарок от PrimaNota.Ru, забирай!