PrimaNota.ru - самый крупный в мире бесплатный архив песенных текстов, аккордов, табулатур и нот


Horna - Sormus - таба, видео

Регистрация Запомнить меня
Войти через:  Facebook Google Twitter Vk Yandex Mail.ru

Horna - Sormus - таба, видео

Печатать
Просмотров: 122
Уроки эстрадного вокала в Санкт-Петербурге
Song - Sormus & Silmä

Band - Horna

Album - Kohti Yhdeksän Nousua


Riff 1

   |----3----|    |--3-|  |--3--|     |----3----|    |------3-----|
   Q    Q    Q    Q    E  E  E  E     Q    Q    Q    Q    Q    E  E
|----------------------------------|---------------------------------|
|----------------------------------|---------------------------------|
|----------------------------------|---------------------------------|
|----------------------------------|---------------------------------|
|--2----4----5----8----L--8--8--8--|--9----8----5----4----5----8--5--|
|--0----2----3----6----L--6--6--6--|--7----6----3----2----3----6--3--|


Riff 2

   |--3-|  |--3--|  |--3-|  |--3--|     |--3-|  |--3--|  |------3------|
   Q    E  E  E  E  Q    E  E  E  E     Q    E  E  E  E  E  E  Q    E  E
|------------------------------------|------------------------------------|
|------------------------------------|------------------------------------|
|------------------------------------|------------------------------------|
|------------------------------------|------------------------------------|
|--2----2--2--2--2--2----2--2--2--2--|--2----2--2--2--2--2--3--3----3--3--|
|--0----0--0--0--0--0----0--0--0--0--|--0----0--0--0--0--0--1--1----1--1--|


   |--3-|  |--3--|  |--3-|  |--3--|     |--3-|  |--3--|  |----3----|
   Q    E  E  E  E  Q    E  E  E  E     Q    E  E  E  E  Q    Q    Q
|------------------------------------|----------------------------------|
|------------------------------------|----------------------------------|
|------------------------------------|----------------------------------|
|------------------------------------|----------------------------------|
|--2----2--2--2--2--8----8--8--8--8--|--7----7--7--7--7--7----3----6----|
|--0----0--0--0--0--6----6--6--6--6--|--5----5--5--5--5--5----1----4----|


   |--3-|  |--3--|  |--3-|  |--3--|     |--3-|  |--3--|  |------3------|
   Q    E  E  E  E  Q    E  E  E  E     Q    E  E  E  E  E  E  Q    E  E
|------------------------------------|------------------------------------|
|------------------------------------|------------------------------------|
|------------------------------------|------------------------------------|
|------------------------------------|------------------------------------|
|--6----6--6--6--6--6----6--6--6--6--|--6----6--6--6--6--6--7--7----7--7--|
|--4----4--4--4--4--4----4--4--4--4--|--4----4--4--4--4--4--5--5----5--5--|


   |--3-|  |--3--|  |--3-|  |--3--|     |--3-|  |--3--|  |----3----|
   Q    E  E  E  E  Q    E  E  E  E     Q    E  E  E  E  Q    Q    Q
|------------------------------------|----------------------------------|
|------------------------------------|----------------------------------|
|------------------------------------|----------------------------------|
|------------------------------------|----------------------------------|
|--6----6--6--6--6--6----6--6--6--6--|--6----6--6--6--6--6----5----3----|
|--4----4--4--4--4--4----4--4--4--4--|--4----4--4--4--4--4----3----1----|


Riff 3

   |----3----|    |----3----|       |----3----|    |----3----|
   Q    Q    Q    Q    Q    Q       Q    Q    Q    Q    Q    Q
|--------------------------------|--------------------------------|
|--------------------------------|--------------------------------|
|--------------------------------|--------------------------------|
|--------------------------------|--------------------------------|
|--2----2----2----2----2----2----|--2----3----0----0--------------|
|--0----0----0----0----0----0----|----------------------3----2----|


Riff 4

Guitar 1

   |----3----|    |----3----|       |----3----|    |----3----|
   Q    Q    Q    Q    Q    Q       Q    Q    Q    Q    Q    Q
|--------------------------------|--------------------------------|
|--------------------------------|--------------------------------|
|--------------------------------|--------------------------------|
|-------2----4----5----4----2----|--------------------------------|
|--------------------------------|--2----3----2----0--------------|
|--0-----------------------------|----------------------3----2----|


   |----3----|    |----3----|       |----3----|    |----3----|
   Q    Q    Q    Q    Q    Q       Q    Q    Q    Q    Q    Q
|--------------------------------|--------------------------------|
|--------------------------------|--------------------------------|
|--------------------------------|--------------------------------|
|-------2----4----5----4----2----|--------------------------------|
|--------------------------------|--2----3----2----0--------------|
|--0-----------------------------|----------------------3----2----|

Guitar 2

                       |-----------3----------|
   W                   H        H        Q    Q       W
|-------------------|------------------------------|-------------------|
|-------------------|------------------------------|-------------------|
|-------------------|------------------------------|-------------------|
|-------------------|------------------------------|-------------------|
|--2----------------|--L--------L--------L----4----|--2----------------|
|--0----------------|--L--------L--------L----2----|--0----------------|



   |-----------3----------|
   H        H        Q    Q
|------------------------------|
|------------------------------|
|------------------------------|
|------------------------------|
|--L--------L--------5----4----|
|--L--------L--------3----2----|


Riff 5

   |--3-|  |--3--|  |--3-|  |--3--|     |--3-|  |--3--|  |--3-|  |-3|
   Q    E  E  E  E  Q    E  E  E  E     Q    E  E  E  E  Q    E  E  Q
|------------------------------------|-----------------------------------|
|------------------------------------|-----------------------------------|
|------------------------------------|-----------------------------------|
|------------------------------------|-----------------------------------|
|--2----2--2--2--2--2----2--2--2--2--|--2----2--2--2--2--2----2--2--4----|
|--0----0--0--0--0--0----0--0--0--0--|--0----0--0--0--0--0----0--0--2----|


Riff 6

   |--3--|  |--3--|  |--3--|  |--3--|
   E  E  E  E  E  E  E  E  E  E  E  E
|--------------------------------------|
|--------------------------------------|
|--------------------------------------|
|--------------------------------------|
|--7--7--7--7--7--7--7--7--7--7--7--7--|
|--5--5--5--5--5--5--5--5--5--5--5--5--|


   |--3--|  |--3--|  |--3--|  |--3--|     |--3--|  |--3--|  |--3--|  |--3--|
   E  E  E  E  E  E  E  E  E  E  E  E     E  E  E  E  E  E  E  E  E  E  E  E
|--------------------------------------|--------------------------------------|
|--------------------------------------|--------------------------------------|
|--------------------------------------|--------------------------------------|
|--------------------------------------|--------------------------------------|
|--3--3--3--3--3--3--3--3--3--3--3--3--|--7--7--7--7--7--7--7--7--7--7--7--7--|
|--1--1--1--1--1--1--1--1--1--1--1--1--|--5--5--5--5--5--5--5--5--5--5--5--5--|


   |--3--|  |--3--|  |--3--|  |--3--|
   E  E  E  E  E  E  E  E  E  E  E  E
|--------------------------------------|
|--------------------------------------|
|--------------------------------------|
|--------------------------------------|
|--3--3--3--3--3--3--4--4--3--6--6--6--|
|--1--1--1--1--1--1--1--1--1--4--4--4--|


Riff 7

   |--3--|  |--3--|  |--3--|  |--3--|
   E  E  E  E  E  E  E  E  E  E  E  E
|--------------------------------------|
|--------------------------------------|
|--------------------------------------|
|--7--7--7--7--7--7--------------------|
|--5--5--5--5--5--5--3--3--3--3--3--3--|
|--------------------1--1--1--1--1--1--|


  |--3--|  |--3--|  |--3--|  |--3--|
  E  E  E  E  E  E  E  E  E  E  E  E
|--------------------------------------|
|--------------------------------------|
|--------------------------------------|
|--------------------5--5--5--5--5--5--|
|--6--6--6--6--6--6--3--3--3--3--3--3--|
|--4--4--4--4--4--4--------------------|


Riff 8

   |--3--|  |--3--|  |--3--|  |--3--|
   E  E  E  E  E  E  E  E  E  E  E  E
|--------------------------------------|
|--------------------------------------|
|--------------------------------------|
|--7--7--7--7--7--7--8--8--8--8--8--8--|
|--5--5--5--5--5--5--6--6--6--6--6--6--|
|--------------------------------------|


   |--3--|   |---3---|   |---3---|   |---3---|
   E  E  E   E   E   E   E   E   E   E   E   E
|-----------------------------------------------|
|-----------------------------------------------|
|-----------------------------------------------|
|--7--7--7--13--13--13--12--12--12--13--13--12--|
|--5--5--5--11--11--11--10--10--10--11--11--10--|
|-----------------------------------------------|


Riff 9

   |--3--|  |--3--|  |--3--|  |--3--|
   E  E  E  E  E  E  E  E  E  E  E  E
|--------------------------------------|
|--------------------------------------|
|--7--7--7--7--7--7--7--7--7--7--7--7--|
|--5--5--5--5--5--5--5--5--5--5--5--5--|
|--------------------------------------|
|--------------------------------------|


   |--3--|  |--3--|  |--3--|  |--3--|
   E  E  E  E  E  E  E  E  E  E  E  E
|--------------------------------------|
|--------------------------------------|
|--8--8--8--8--8--8--------------------|
|--6--6--6--6--6--6--7--7--7--7--7--7--|
|--------------------5--5--5--5--5--5--|
|--------------------------------------|

Alternative Riff 9
When you play this riff the last time play it like this

   |--3--|  |--3--|  |--3--|  |--3--|
   E  E  E  E  E  E  E  E  E  E  E  E
|--------------------------------------|
|--------------------------------------|
|--7--7--7--7--7--7--7--7--7--7--7--7--|
|--5--5--5--5--5--5--5--5--5--5--5--5--|
|--------------------------------------|
|--------------------------------------|


   |--3--|  |--3--|  |--3--|  |--3--|
   E  E  E  E  E  E  E  E  E  E  E  E
|--------------------------------------|
|--------------------------------------|
|--8--8--8--8--8--8--------------------|
|--6--6--6--6--6--6--7--7--7--7--7--7--|
|--------------------5--5--5--5--5--5--|
|--------------------------------------|


   |--3--|  |--3--|  |--3--|  |--3--|
   E  E  E  E  E  E  E  E  E  E  E  E
|--------------------------------------|
|--------------------------------------|
|--7--7--7--7--7--7--7--7--7--7--7--7--|
|--5--5--5--5--5--5--5--5--5--5--5--5--|
|--------------------------------------|
|--------------------------------------|


   |-----3----|     |-----3-----|
   Q    Q     Q     Q     Q     Q
|------------------------------------|
|------------------------------------|
|--8----9----10----11----12----13----|
|--6----7-----8-----9----10----11----|
|------------------------------------|
|------------------------------------|



Riff 10

   |--3--|  |--3--|  |--3--|  |--3--|
   E  E  E  E  E  E  E  E  E  E  E  E
|--------------------------------------|
|--------------------------------------|
|--7--7--7--7--7--7--7--7--7--7--7--7--|
|--5--5--5--5--5--5--5--5--5--5--5--5--|
|--------------------------------------|
|--------------------------------------|


   |--3--|  |--3--|  |--3--|  |--3--|
   E  E  E  E  E  E  E  E  E  E  E  E
|--------------------------------------|
|--------------------------------------|
|--9--9--9--9--9--9--9--9--9--9--9--9--|
|--7--7--7--7--7--7--7--7--7--7--7--7--|
|--------------------------------------|
|--------------------------------------|


   |--3--|  |--3--|  |--3--|  |--3--|
   E  E  E  E  E  E  E  E  E  E  E  E
|--------------------------------------|
|--------------------------------------|
|--8--8--8--8--8--8--8--8--8--8--8--8--|
|--6--6--6--6--6--6--6--6--6--6--6--6--|
|--------------------------------------|
|--------------------------------------|


   |--3--|  |--3--|   |---3---|   |---3---|
   E  E  E  E  E  E   E   E   E   E   E   E
|--------------------------------------------|
|--------------------------------------------|
|--7--7--7--7--7--7--------------------------|
|--5--5--5--5--5--5--10--10--10--10--10--10--|
|---------------------8---8---8---8---8---8--|
|--------------------------------------------|


Riff 11

This riff is actually the same as riff 10 only 1 octave lower

   |--3--|  |--3--|  |--3--|  |--3--|
   E  E  E  E  E  E  E  E  E  E  E  E
|--------------------------------------|
|--------------------------------------|
|--------------------------------------|
|--------------------------------------|
|--5--5--5--5--5--5--5--5--5--5--5--5--|
|--3--3--3--3--3--3--3--3--3--3--3--3--|


  |--3--|  |--3--|  |--3--|  |--3--|
  E  E  E  E  E  E  E  E  E  E  E  E
|--------------------------------------|
|--------------------------------------|
|--------------------------------------|
|--------------------------------------|
|--7--7--7--7--7--7--7--7--7--7--7--7--|
|--5--5--5--5--5--5--5--5--5--5--5--5--|


   |--3--|  |--3--|  |--3--|  |--3--|
   E  E  E  E  E  E  E  E  E  E  E  E
|--------------------------------------|
|--------------------------------------|
|--------------------------------------|
|--------------------------------------|
|--6--6--6--6--6--6--6--6--6--6--6--6--|
|--4--4--4--4--4--4--4--4--4--4--4--4--|


   |--3--|  |--3--|  |--3--|  |--3--|
   E  E  E  E  E  E  E  E  E  E  E  E
|--------------------------------------|
|--------------------------------------|
|--------------------------------------|
|--------------------------------------|
|--5--5--5--5--5--5--3--3--3--3--3--3--|
|--3--3--3--3--3--3--1--1--1--1--1--1--|
Добавлено: 23.04.2012
Другие материалы по этой песне:
  • Аккорды и текст

Страница создана 23.04.2012
http://primanota.ru/horna/sormus-chords.htm
Привет, Гость.
Предлагаем пройти революционный курс по гитаре.
Подарок от PrimaNota.Ru, забирай!