PrimaNota.ru - самый крупный в мире бесплатный архив песенных текстов, аккордов, табулатур и нот


Horna - Lhtlaukaus - таба

Регистрация Запомнить меня
Войти через:  Facebook Google Twitter Vk Yandex Mail.ru

Horna - Lhtlaukaus - таба

Печатать
Просмотров: 59
Lähtölaukaus

by Horna

D-Tuning

Riff 1

|---------------------------|----------------------------|
|---------------------------|----------------------------|
|---------------------------|----------------------------|
|---------------------------|-----------7s--8-----5s--7--|
|---------5--------8--------|--7--------5s--6-----3s--5--|
|---0--0--3--0--0--6--0--0--|--5--0--0---------0---------|

|---------------------------|----------------------------|
|---------------------------|----------------------------|
|---------------------------|----------------------------|
|---------------------------|----------------------------|
|---------5--------8--------|--6--5--3-----5--3----------|
|---0--0--3--0--0--6--0--0--|-----------6--------6--5----|

Riff 2

|------------------------|-------------------------|
|------------------------|-------------------------|
|------------------------|-------------------------|
|---3----5--5----4----4--|--L----4--4--4--4--4--4--|
|---3----5--5----4----4--|--L----4--4--4--4--4--4--|
|---1----3--3----2----2--|--L----2--2--2--2--2--2--|

|---------------------------|--------------------------|
|---------------------------|--------------------------|
|---------------------------|--------------------------|
|---4--4--4--4--4--4--4--4--|--4--4--4--4--4--4--4--4--|
|---4--4--4--4--4--4--4--4--|--4--4--4--4--4--4--4--4--|
|---2--2--2--2--2--2--2--2--|--2--2--2--2--2--2--2--2--|

|------------------------|-------------------------|
|------------------------|-------------------------|
|------------------------|-------------------------|
|---2----4--4----3----3--|--L----3--3--3--3--3--3--|
|---2----4--4----3----3--|--L----3--3--3--3--3--3--|
|---0----2--2----1----1--|--L----1--1--1--1--1--1--|

|---------------------------|---------------------------|
|---------------------------|---------------------------|
|---------------------------|---------------------------|
|---3--3--3--3--3--3--3--3--|--3--3--3--3--3--3--3--3---|
|---3--3--3--3--3--3--3--3--|--3--3--3--3--3--3--3--3---|
|---1--1--1--1--1--1--1--1--|--1--1--1--1--1--1--1--1---|

Last time play like this

|-----------------------|-------------------------|-------------------------|
|-----------------------|-------------------------|-------------------------|
|-----------------------|-------------------------|-------------------------|
|--2----4--4----3----9--|--L----9--9--9--9--9--8--|--L----8--8--8--8--8--7--|
|--2----4--4----3----9--|--L----9--9--9--9--9--8--|--L----8--8--8--8--8--7--|
|--0----2--2----1----7--|--L----7--7--7--7--7--6--|--L----6--6--6--6--6--5--|

|--------------------------|
|--------------------------|
|--------------------------|
|--L----7--7--7--7--7------|
|--L----7--7--7--7--7------|
|--L----5--5--5--5--5--4~--|

Be sure to bend the last note good so it gets a chaotic sound

Riff 3

|-------------------------------|-------------------------------|
|-------------------------------|-------------------------------|
|-------------------------------|-------------------------------|
|-------------------------------|-------------------------------|
|--2------2---------------------|--2------2---------------------|
|--0------0------1----2~--------|--0------0------1----2~--------|

|------------------------------|-------------------|
|------------------------------|-------------------|
|------------------------------|-------------------|
|------------------------------|-------------------|
|--2------2------5------4------|--3----------------|
|--0------0------3------2------|--1----------------|
Добавлено: 31.10.2013
Вам также может быть интересно:
Другие материалы по этой песне:
  • Аккорды и текст

Страница создана 31.10.2013
http://primanota.ru/horna/lhtlaukaus-chords.htm
Привет, Гость.
Предлагаем пройти революционный курс по гитаре.
Подарок от PrimaNota.Ru, забирай!