PrimaNota.ru - самый крупный в мире бесплатный архив песенных текстов, аккордов, табулатур и нот


Horna - Kirotun Kden Kosketus - таба

Регистрация Запомнить меня
Войти через:  Facebook Google Twitter Vk Yandex Mail.ru

Horna - Kirotun Kden Kosketus - таба

Печатать
Просмотров: 67
Kirotun Käden Kosketus

By Horna

D-Tuning

Riff 1

|-----------------------------------|-----------------------------------|
|-----------------------------------|-----------------------------------|
|-----------------------------------|-----------------------------------|
|-----------------------------------|-----------------------------------|
|-------------------5-5-5-5---------|--3-3-3-3---------3-3-3-3----------|
|---2-2-2-2-2-2-2-2---------2-2-2-2-|----------0-0-0-0---------0-0-0-0--|

Riff 2

Guitar 1

|-----------------------------------|----------------------------------|
|-----------------------------------|----------------------------------|
|-----------------------------------|----------------------------------|
|-------------------6-6-6-6-6-6-----|--8-8-8-8-8-8-----6-6-6-6-5-5-5-5-|
|-------------------------------6-6-|--------------6-6-----------------|
|---4-4-4-4-4-4-4-4-----------------|----------------------------------|


 
|----------------------------------|--------------------------------|
|--------------------------3-3-3-3-|--4-4-4-4-3-3-3-3---------------|
|------------------5-5-5-5---------|------------------5-5-5-5-------|
|----------5-5-5-5-----------------|--------------------------------|
|--3-3-3-3-------------------------|--------------------------5-----|
|----------------------------------|--------------------------3-----|

Guitar 2

|-----------------------------------|----------------------------------|
|-----------------------------------|----------------------------------|
|-----------------------------------|----------------------------------|
|-----------------------------------|----------------------------------|
|---6-6-6-6-6-6-6-6-6-6-6-6-6-6-6-6-|--6-6-6-6-6-6-6-6-6-6-6-6-6-6-6-6-|
|---4-4-4-4-4-4-4-4-4-4-4-4-4-4-4-4-|--4-4-4-4-4-4-4-4-4-4-4-4-4-4-4-4-|

|----------------------------------|--------------------------------|
|----------------------------------|--------------------------------|
|----------------------------------|--------------------------------|
|--5-5-5-5-5-5-5-5-5-5-5-5-5-5-5-5-|--5-5-5-5-5-5-5-5-5-5-5-5-------|
|--3-3-3-3-3-3-3-3-3-3-3-3-3-3-3-3-|--3-3-3-3-3-3-3-3-3-3-3-3-5-----|
|----------------------------------|--------------------------3-----|

Riff 3

Guitar 1

|-----------------------|----------------------|----------------------|
|-----------------------|----------------------|----------------------|
|-----------------------|----------------------|----------------------|
|---6--------6----6--6--|--6--------6----6--6--|--7--------7----7--7--|
|---4--------4----4--4--|--4--------4----4--4--|--5--------5----5--5--|
|-----------------------|----------------------|----------------------|
 
|-----------------------|
|-----------------------|
|-----------------------|
|-----------------------|
|--6--------6----6--6---|
|--4--------4----4--4---|

Guitar 2

Comes in on the fifth time the riff is played

|-------------------------|------------------------|
|------------0------------|-----------0------------|
|---------6-------6-------|--------6-------6-------|
|------6-------------6----|-----6-------------6----|
|---4---------------------|--4---------------------|
|-------------------------|------------------------|

|------------------------|-------------------------|
|-----------0------------|-----------0-------------|
|--------7-------7-------|-------------------------|
|-----7-------------7----|--------6-------6--------|
|--5---------------------|-----6-------------6-----|
|------------------------|--4----------------------|

Listen to the song for structure
End with B power chord
Добавлено: 12.11.2013
Другие материалы по этой песне:
  • Аккорды и текст

Страница создана 12.11.2013
http://primanota.ru/horna/kirotun-kden-kosketus-chords.htm
Привет, Гость.
Предлагаем пройти революционный курс по гитаре.
Подарок от PrimaNota.Ru, забирай!