PrimaNota.ru - самый крупный в мире бесплатный архив песенных текстов, аккордов, табулатур и нот


Horna - Avain Tuhossani - таба, видео

Регистрация Запомнить меня
Войти через:  Facebook Google Twitter Vk Yandex Mail.ru

Horna - Avain Tuhossani - таба, видео

Печатать
Просмотров: 92
Уроки эстрадного вокала в Санкт-Петербурге
Avain tuhossani

By Horna

D-Tuning

Riff 1

|-------------------------|-----------------------|------------------------|
|-------------------------|-----------------------|------------------------|
|-------------------------|-----------------------|------------------------|
|---4----4--4--4--5----8--|--L--8--8--7------5----|--4----4--4--4--5----2--|
|---2----2--2--2--3----6--|--L--6--6--5------3----|--2----2--2--2--3----0--|
|-------------------------|-----------------------|------------------------|
     
|-------------------------|
|-------------------------|
|-------------------------|
|--L--2--2--2------4--5---|
|--L--0--0--0------2--3---|
|-------------------------|

Riff 2

|----------------------|-----------------------|----------------------|
|----------------------|-----------------------|----------------------|
|----------------------|-----------------------|----------------------|
|--4--------4----4--4--|--5----5--5--5--8------|--4--------4----4--4--|
|--2--------2----2--2--|--3----3--3--3--6------|--2--------2----2--2--|
|----------------------|-----------------------|----------------------|
 
|-------------------------|
|-------------------------|
|-------------------------|
|--5----5--5--5--2--2--5--|
|--3----3--3--3--0--0--3--|
|-------------------------|

Riff 3 

|-----------------------------|----------------------------------|
|-----------------------------|----------------------------------|
|--9--9--9-----11--11--11-----|--12--12--12--12--12--12--12--12--|
|--9--9--9--9---9---9---9--9--|---9---9---9---9---9---9---9---9--|
|-----------------------------|----------------------------------|
|-----------------------------|----------------------------------|
 
|----------------------------------|----------------------------------|
|----------------------------------|----------------------------------|
|--10--10--10------12--12--12------|--13--13--13--13--13--13--13--13--|
|--10--10--10--10--10--10--10--10--|--10--10--10--10--10--10--10--10--|
|----------------------------------|----------------------------------|
|----------------------------------|----------------------------------|

Riff 4

Not sure about this riff but play D-minor chord here with some improvisation and 
it should sound good.

Guitar 1 

|--------------------------|--------------0-----------|
|--------------0-----------|-----------------0--------|
|-----------0-----0--------|-----------0--------0-----|
|--------2-----------2-----|--------2--------------2--|
|-----2-----------------2--|-----2--------------------|
|--0-----------------------|--0-----------------------|
  
|--------------------------|--------------------------|
|--------------0-----------|--------------------------|
|-----------0-----0--------|--------0-----------0-----|
|--------2-----------2-----|-----0-----0-----0-----0--|
|-----2-----------------2--|--------------------------|
|--0-----------------------|--2-----------3-----------|

Guitar 2

|-------------------|-------------------|-------------------|
|-------------------|-------------------|-------------------|
|-------------------|-------------------|-------------------|
|-------------------|-------------------|-------------------|
|-------------------|-------------------|-------------------|
|--0----------------|--L----------------|--0----------------|
     
|--------------------|
|--------------------|
|--------------------|
|--------------------|
|--------------------|
|--2--------3--------|


Riff 4 variation

Guitar 1

Play the same riff

Guitar 2

|--0----------------|--0----------------|--0----------------|
|--0----------------|--0----------------|--0----------------|
|--0----------------|--0----------------|--0----------------|
|--2----------------|--2----------------|--2----------------|
|--2----------------|--2----------------|--2----------------|
|--0----------------|--0----------------|--0----------------|
  
|--------------------|
|--------------------|
|--------------------|
|--------------------|
|--------------------|
|--2--------3--------|

End with a D-minor chord
Добавлено: 04.12.2013
Другие материалы по этой песне:
  • Аккорды и текст

Страница создана 04.12.2013
http://primanota.ru/horna/avain-tuhossani-chords.htm
Привет, Гость.
Предлагаем пройти революционный курс по гитаре.
Подарок от PrimaNota.Ru, забирай!