PrimaNota.ru - самый крупный в мире бесплатный архив песенных текстов, аккордов, табулатур и нот


Horizon - Irritation - таба, видео

Регистрация Запомнить меня
Войти через:  Facebook Google Twitter Vk Yandex Mail.ru

Horizon - Irritation - таба, видео

Печатать
Просмотров: 97
-------------------------------------------------------------------------------
                             SONG NAME - Band Name
-------------------------------------------------------------------------------
Tabbed by: 
E-mail:

Tuning: Drop D
               x8
e|-------------|-------------------------------------------------------------|
B|-------------|-------------------------------------------------------------|
G|-------------|-------------------------------------------------------------|
D|2-3-2-0-5-3-0|12(trem.)10(trem.)15(trem.)12br(trem.)10(trem.)15(trem.)-----|
A|2-3-2-0-5-3-0|-------------------------------------------------------------|
D|2-3-2-0-5-3-0|-------------------------------------------------------------|
                          x3
e|----------|-------------|-----------------------------------|--------------|
B|----------|-------------|-----------------------------------|6-----3-------|
G|----------|-------------|-----------------------------------|5-----2-------|
D|14b(trem.)|0-3-0-0-0-3-0|0-3-0-0-0-5-0-5-5-0-5-0-5-5-0-3---0|3-----0-------|
A|----------|0-3-0-0-0-3-0|0-3-0-0-0-5-0-5-5-0-5-0-5-5-0-3---0|3-----0-------|
D|----------|0-3-0-0-0-3-0|0-3-0-0-0-5-0-5-5-0-5-0-5-5-0-3---0|3-----0-------|
Rest             x8              x7 
e|---------------|---------------|---------------|---------------------------|
B|---------------|---------------|---------------|---------------------------|
G|---------------|---------------|---------------|---------------------------|
D|---------------|0-3-0-5-0-3-0-3|0-3-8888-5555-0|---------------------------|
A|---------------|0-3-0-5-0-3-0-3|0-3-8888-5555-0|---------------------------|
D|0-3-0-5-0-3-0-3|0-3-0-5-0-3-0-3|0-3-8888-5555-0|---------------------------|
Rest          x4                                                             x4 
e|------------|----------------------------------------------|---------------|
B|------------|----------------------------------------------|---------------|
G|------------|----------------------------------------------|---------------|
D|------------|----------------------------------------------|---------------|
A|------------|----------------------------------------------|---------------|
D|000000000000|000h8-000000000h7-000000000h5-0000000000000000|000000000000---|
                 x8              x4              x3                          x4
e|---------------|---------------|---------------|---------------|-----------|
B|---------------|---------------|---------------|---------------|3----------|
G|---------------|---------------|---------------|---------------|2----------|
D|---------------|0-3-0-7-0-3-0-5|0-3-0-5-0-3-0-3|0-3-8888-5555-0|0-888-555-0|
A|---------------|0-3-0-7-0-3-0-5|0-3-0-5-0-3-0-3|0-3-8888-5555-0|--888-555-0|
D|0-3-0-7-0-3-0-5|0-3-0-7-0-3-0-5|0-3-0-5-0-3-0-3|0-3-8888-5555-0|--888-555-0|

e|---------------------------------------------------------------------------|
B|---------------------------------------------------------------------------|
G|---------------------------------------------------------------------------|
D|15------15-14----17-----18------15------14-----17-------19-----20------19--|
A|---------------------------------------------------------------------------|
D|---------------------------------------------------------------------------|
                                   X16                             X4 
e|------------------------|--------|-------------------------------|---------|
B|------------------------|--------|-------------------------------|---------|
G|------------------------|--------|-------------------------------|---------|
D|17-19-17--------15-17-12|--------|0-10-12-0-10-12-0-10-12-0-12-13|---------|
A|------------------------|--------|0-10-12-0-10-12-0-10-12-0-12-13|---------|
D|------------------------|10-12-12|0-10-12-0-10-12-0-10-12-0-12-13|---------|
                                                    x2            
e|--------------------------------------------------|------------------------|
B|--------------------------------------------------|------------------------|
G|--------------------------------------------------|------------------------|
D|0-3-5-0------0-3-5-0------0-3-5-0------0-3-5-0----|------------------------|
A|0-3-5-0----5-0-3-5-0----5-0-3-5-0----5-0-3-5-0-5-6|------------------------|
D|0-3-5-0-3h5--0-3-5-0-3h5--0-3-5-0-3h5--0-3-5-0----|------------------------|

e|-----------------------------------------------|---------------------------|
B|-----------------------------------------------|---------------------------|
G|-----------------------------------------------|---------------------------|
D|0-0-00-------0-0-00-------0-0-00-------0-0-00-6|0--------------------------|
A|0-0-00-------0-0-00-------0-0-00-------0-0-00-6|0--------------------------|
D|0-0-00-3h5p3-0-0-00-3h5p3-0-0-00-3h5p3-0-0-00-6|0--------------------------|

                                                              
************************************

| /   slide up
| \   slide down
| h   hammer-on
| p   pull-off
| ~   vibrato
| +   harmonic
| x   Mute note
| b   Bend
| pb  Pre-bend
| br  Bend release
| pbr Pre-bend release
| brb Bend release bend

************************************
Добавлено: 03.08.2015
Другие материалы по этой песне:
  • Аккорды и текст

Страница создана 03.08.2015
http://primanota.ru/horizon/irritation-chords.htm
Привет, Гость.
Предлагаем пройти революционный курс по гитаре.
Подарок от PrimaNota.Ru, забирай!