PrimaNota.ru - самый крупный в мире бесплатный архив песенных текстов, аккордов, табулатур и нот


Horatio G Spafford - It Is Well With My Soul - таба, видео

Регистрация Запомнить меня
Войти через:  Facebook Google Twitter Vk Yandex Mail.ru

Horatio G Spafford - It Is Well With My Soul - таба, видео

Печатать
Просмотров: 72
-------------------------------------------------------------------------------
                        it is well with my soul - horatio G spafford 
-------------------------------------------------------------------------------
Tabbed by:
E-mail:
key of Bb
Tuning:E-A-D-G-B-e

e|---------------------------------------------------------------------------|
B|---------------------------------------------------------------------------|
G|-------------------------------0------------------3--2---0---0-------------|
D|----3----3----1---0--0----0--1----3--1--0----3----0----------0---3---2---3-|
A|----5----5----3---1--1-3--1--0----3--3--1----5-------3---1-------3---3---3-|
E|-----------------------5---------------------------------------------------|
    when peace like a river attendeth my way when sorrow like sea billows roll
e|---------------------------------------------------------------------------|
B|--------------------------------1---1--------------------------------------|
G|--------3-3-2---0----0---0-------------3---2--0-------3--3--3---3----2----3|
D|----3---0-0-3---1--------3------1---1--1---3--3--3----3---------0---------0|
A|---------------------------------------------------------1--3--------3-----|
E|---------------------------------------------------------------------------|
    what ever my lot thou hast taught me to say it is well it is well with my 
e|---------------------------------------------------------------------------|
B|---------------------------------------------------------------------------|
G|---3-----------------------------------------------------------------------|
D|---0-----------------------------------------------------------------------|
A|---------------------------------------------------------------------------|
E|---------------------------------------------------------------------------|
    soul
e|----------------------------------------------------------------------------------------|
B|----------------------------------------------------------------------------------------|
G|-------------------------------------------------------------0---0--3---3----2---3---3--|
D|--3--3---3----0--0---3----3--3---3----------1----3----0--3---1---1--1---0------------0--|
A|---------------------3-------------------3-------5----1--5-------------------3----------|
E|----------------------------------------------------------------------------------------|
   it is well (it is well) with my soul (with my soul) it is well it is well with my soul 


************************************

| /   slide up
| \   slide down
| h   hammer-on
| p   pull-off
| ~   vibrato
| +   harmonic
| x   Mute note
| b   Bend
| pb  Pre-bend
| br  Bend release
| pbr Pre-bend release
| brb Bend release bend

************************************
Добавлено: 13.12.2015
Другие материалы по этой песне:
  • Аккорды и текст

Страница создана 13.12.2015
http://primanota.ru/horatio-g-spafford/it-is-well-with-my-soul-chords.htm
Привет, Гость.
Предлагаем пройти революционный курс по гитаре.
Подарок от PrimaNota.Ru, забирай!