PrimaNota.ru - самый крупный в мире бесплатный архив песенных текстов, аккордов, табулатур и нот


Hopesfall - Waitress - текст песни, бас-таба, видео

Регистрация Запомнить меня
Войти через:  Facebook Google Twitter Vk Yandex Mail.ru

Hopesfall - Waitress - текст песни, бас-таба, видео

Печатать
Просмотров: 158
Уроки эстрадного вокала в Санкт-Петербурге
G|------------------------------------------------------------------|
D|------------------------------------------------------------------|
A|---------------------1-11-1-11-1-11-1-11-0-00-0-00-0-00-0-00-0-00-|
D|-3-33-3-33-3-33-3-33----------------------------------------------|

G|-----------------------------|
D|-3p2p00-3p2p00-3p2p00-3p2p00-| (play after guitar does it)
A|-----------------------------|
D|-----------------------------|

G|------------------------------------------------------------------|
D|------------------------------------------------------------------|
A|---------------------1-11-1-11-1-11-1-11-0-00-0-00-0-00-0-00-0-00-|
D|-3-33-3-33-3-33-3-33----------------------------------------------|

G|------------------------------------------------------------------|
D|------------------------------------------------------------------|
A|-1-11-1-11-3-33-3-33----------------------------------------------|
D|------------------------------------------------------------------|

G|------------------------------------|
D|------------------------------------|
A|------------------------------------|(very quickly)
D|--3p2-0h2--(11x)-3p2--3p2-0h2--(4x)-| 

G|------------------------|
D|------------------------|
A|------------------------|
D|-0-0-0-0-0-0-0-0-3~-2~--|

No Bass During Clapping Part

G|---------------------------------------------|
D|---------------------------------------------|
A|---------------------------------------------|
D|-3p2-0h2-0-111-(4x)----3p2-0h2-0-11-111-(4x)-| (very quick)

(2x)
G|-------------|
D|-------------|
A|-3~-1~-0~----|
D|----------0~-| 

G|-----------------------------------------------------|
D|-------------------------33333333--------------------|
A|-3333333333333333-111111----------000000000----------|
D|--------------------------------------------00000000-| 
(4x)


G|---------------------------------------|
D|-----------------------------------3~--|
A|-1111111111111111-(Pause)-(4x)---------| 
D|---------------------------------------| 

G|----------------|
D|----------------|
A|----------------|(4x) Very Heavy Part
D|-0-0-000-0-0000-| 

G|--------------|
D|--2---0-3-----|
A|----3---------|(12x)
D|--------------| 

G|--------------|
D|--------------|
A|----3---------|(10x) (then slide to 0 on A string)
D|--------------| 

I think this tab is Completely correct. enjoy it! and please rate
Добавлено: 13.03.2012
Другие материалы по этой песне:
  • Аккорды и текст

Страница создана 13.03.2012
http://primanota.ru/hopesfall/waitress-chords.htm
Привет, Гость.
Предлагаем пройти революционный курс по гитаре.
Подарок от PrimaNota.Ru, забирай!