PrimaNota.ru - самый крупный в мире бесплатный архив песенных текстов, аккордов, табулатур и нот


Hopesfall - The Broken Heart Of A Traitor - текст песни, таба, бас-таба, видео

Регистрация Запомнить меня
Войти через:  Facebook Google Twitter Vk Yandex Mail.ru

Hopesfall - The Broken Heart Of A Traitor - текст песни, таба, бас-таба, видео

Печатать
Просмотров: 128
intro 
e|---------------------------------------------------------------------------| 
B|---------------------------------------------------------------------------| 
G|-10-10-10-10-----10-10-10-10------9-9-9-9------12-12-12-12-----------------| 
D|--x--x--x--x---0--x--x--x--x---0--x-x-x-x---0--x---x--x--x----0------------| 
A|--8--8--8--8---0--8--8--8--8---0--7-7-7-7---0--10-10-10-10----0------------| 
D|---------------0---------------0------------0-----------------0------------| 

guitar 2 intro w/ distortion when first guitar goes distorted 
e|---------------------------------------------------------------------------| 
B|--harmonic-----------------------------------------------------------------| 
G|-*7*--------------------7-----7----5----9----------------------------------| 
D|------------------------x-----x----x----x----------------------------------| 
A|----/3~/7~--/5~/7~------5-----5----3----7----------------------------------| 
D|---------------------------------------------------------------------------| 

both guitars play together rest of the song 

e|---------------------------------------------------------------------------| 
B|---------------------------------------------------------------------------| 
G|--------------------9-9-9-9-7-9/-11----------------------------------------| 
D|--------------------x-x-x-x--x-x--x----------------------------------------| 
A|--------------------7-7-7-7-5-7/--9----------------------------------------| 
D|--00000----00000-----------------------------------------------------------| 
pm  *****    ***** 
e|----------------------------------------------------------------------------| 
B|----------------------------------------------------------------------------| 
G|-------------777--7777---------9-7---12-9-10--------------------------------| 
D|-0000--0000--xxx--5555-------------0----------------------------------------| 
A|-0000--0000--555--5555---------7-5-0-10-7--8--------------------------------| 
D|-0000--0000--555--5555-------------0----------------------------------------| 
pm ****  ****                        *
e|---------------------------------------------------------------------------| 
B|---------------------------------------------------------------------------| 
G|-------9-10-7--------10-9-5---------9-10-7---------9-10-12---------10------| 
D|-0000--x--x-x---0000--x-x-x---0000--x--x-x--0000---x--x--x----------8------| 
A|-0000--7--8-5---0000--8-7-3---0000--7--8-5--0000---7--8-10----------8------| 
D|-0000-----------0000----------0000----------0000--------------------8------| 
pm ****           ****          ****          **** 

e|------------------------| 
B|------------------------| 
G|-----------------10-----| 
D|-0000-0--0000-0--8------| 
A|-0000-0--0000-0--8------| 
D|-0000-0--0000-0--8------| 
   **** *  **** * 
e|----------------------------------------------| 
B|----------------------------------------------| 
G|10--9--7--12-10-9----10--9-7--11-14-12------10| 
D|-x--x--x--x---x-x-----x--x-x--x---x-x-------8-| (5x7 might be 3x5)
A|-8--7--5--10--8-7-----8--7-5--13-12-10------8-| 
D|------x2---------------------x2-------------8-|x16 

bridge/breakdown          0 r
e|-------------------------|-----------------------|
B|-------------------------|-----------------------|
G|---------10--------------|--------9--------------|
D|-------------------------|-----------------------| i think this is wrong but ill fix it later
A|------8------------------|-----7-----------------|
D|--0----------------------|--0--------------------|


e|----------------------------------| 
B|----------------------------------| 
G|------10-10-10-10-10--------------| 
D|-------x--x--x--x--x----0---------| 
A|-------8--8--8--8--8----0---------| 
D|------------------------0---------| 

distortion 
e|------------------------------------------| 
B|------------------------------------------| 
G|-10-----5-----10-10-------9-9-------------| 
D|--8-----3------x--x--10---x-x--10---------| 
A|--8-----3------8--8--10---7-7--10---------| 
D|--8-----3------------10--------10---------| 


e|-------------------| 
B|-------------------| 
G|---9/10-7-5-12-9---| 
D|-------------------| 
A|---7/-8-5-3-10-7---| 
D|-------------------| 


e|------------| 
B|------------| 
G|------------| 
D|-8~---0~----| 
A|-8~---0~----| 
D|-8~---0~----| 


clean 
e|---------------------------------| 
B|---------------------------------| 
G|-9/10---------9/10---9-----------| 
D|-x--x--0-x4---x-x----x---x4------| 
A|-7/-8--0------7/8----7-----------| 
D|-------0-------------------------| 

repeat till end of song 
e|------------------------------------------------------|------------------------|
B|------------------------------------------------------|------------------------|
G|----9/10-------------------5/7-10---------------------|-10---------12----------|
D|-0~--------0~-x4--then--0~------8--3333--3333--3333---|------------------------|
A|-0~-7/-8---0~-----------0~-3/5--8--3333--3333--3333---|----8----------10-------|
D|-0~--------0~-----------0~------8--3333--3333--3333---|------10-----------12---|

Добавлено: 27.03.2012
Другие материалы по этой песне:
  • Аккорды и текст

Страница создана 09.03.2012
http://primanota.ru/hopesfall/the-broken-heart-of-a-traitor-chords.htm
Привет, Гость.
Предлагаем пройти революционный курс по гитаре.
Подарок от PrimaNota.Ru, забирай!