PrimaNota.ru - самый крупный в мире бесплатный архив песенных текстов, аккордов, табулатур и нот


Hopesfall - Swamp Kittens - текст песни, таба, видео

Регистрация Запомнить меня
Войти через:  Facebook Google Twitter Vk Yandex Mail.ru

Hopesfall - Swamp Kittens - текст песни, таба, видео

Печатать
Просмотров: 117
-------------------------------------------------------------------------------
			     SWAMP KITTENS - Hopesfall
-------------------------------------------------------------------------------
Tabbed by: Muir Freeland
Email: canvasofwinter@gmail.com

Tuning: Db Ab Db Gb Bb eb

PART 1

Guitar 1 (Delay) (0:00)

eb    |--------------------------------------|----------------------------17--------|
Bb    |--------------------------------------|----------17-17-17-17----------17-----|
Gb    |-14-14-13-13-------------------------|-16-16---------------------------------|
Db    |-------------------14-14--------------|--------------------------------------|
Ab    |----------------------------16-16-----|--------------------------------------|
Db    |--------------------------------------|--------------------------------------|

eb    |--------------------------------------|----------------------------19--------|
Bb    |--------------------------------------|----------17-17-17-17----------17-----|
Gb    |-14-14-13-13-------------------------|-16-16---------------------------------|
Db    |-------------------14-14-------------|---------------------------------------|
Ab    |----------------------------16-16----|---------------------------------------|
Db    |-------------------------------------|---------------------------------------|

Guitar 2 (0:06)

eb    |--------------------------------------|---------------------------------------|
Bb    |--------------------------------------|---------------------------------------|
Gb    |--------------------------------------|---------------------------------------|
Db    |-4-4----------4-4----------4-4-------|--------0-0-------------0-0-0-0---------|
Ab    |-4-4----------4-4----------4-4-------|--------0-0-------------0-0-0-0---------|
Db    |-4-4----------4-4----------4-4-------|--------0-0-------------0-0-0-0---------|

eb    |--------------------------------------|---------------------------------------|
Bb    |--------------------------------------|---------------------------------------|
Gb    |--------------------------------------|---------------------------------------|
Db    |-9-9----------9-9----------9-9-------|--------0-0-------------0-0-0-0---------|
Ab    |-9-9----------9-9----------9-9-------|--------0-0-------------0-0-0-0---------|
Db    |-9-9----------9-9----------9-9-------|--------0-0-------------0-0-0-0---------|

eb    |--------------------------------------|---------------------------------------|
Bb    |--------------------------------------|---------------------------------------|
Gb    |--------------------------------------|---------------------------------------|
Db    |-4-4----------4-4----------4-4-------|----------------7---6-------------------|
Ab    |-4-4----------4-4----------4-4-------|--------4---5---------7---5---0---------|
Db    |-4-4----------4-4----------4-4-------|----------------------------------------|


PART II

Guitar 1 (0:17)

(Tremolo picked sixteenth notes)

eb	|------------------------|--------------------------|
Bb	|-12---------------------|-15-----------------------|
Gb	|------------------------|--------------------------|
Db	|------------------------|--------------------------|
Ab	|------------------------|--------------------------|
Db	|------------------------|--------------------------|

eb	|------------------------|-------------------------|
Bb	|-14---------------------|-------------------------|
Gb	|------------------------|-14----------------------|
Db	|------------------------|-------------------------|
Ab	|------------------------|-------------------------|
Db	|------------------------|-------------------------|

eb    |------------------------|----------------------------|
Bb    |-16---------------------|-14-------------------------|
Gb    |------------------------|----------------------------|
Db    |------------------------|----------------------------|
Ab    |------------------------|----------------------------|
Db    |------------------------|----------------------------|

eb	|------------------------|-------------------------|
Bb	|-18---------------------|-19----------------------|
Gb	|------------------------|-------------------------|
Db	|------------------------|-------------------------|
Ab	|------------------------|-------------------------|
Db	|------------------------|-------------------------|

eb	|------------------------|-------------------------|
Bb	|-18---------------------|-18----------------------|
Gb	|------------------------|-------------------------|
Db	|------------------------|-------------------------|
Ab	|------------------------|-------------------------|
Db	|------------------------|-------------------------|

Guitar 2 (0:17)

(Play twice)

eb    |------------------------|---------------------------|
Bb    |------------------------|---------------------------|
Gb    |------------------------|---------------------------|
Db    |-4-4-4-4-4-4-4-4--------|-4-0-0-0-0-0-0-0-----------|
Ab    |-4-4-4-4-4-4-4-4--------|-4-0-0-0-0-0-0-0-----------|
Db    |-4-4-4-4-4-4-4-4--------|-4-0-0-0-0-0-0-0-----------|

eb    |------------------------|---------------------------|
Bb    |------------------------|---------------------------|
Gb    |------------------------|---------------------------|
Db    |-9-9-9-9-9-9-9-9-------|-0-0-0-0-0-0-0-0------------|
Ab    |-9-9-9-9-9-9-9-9-------|-0-0-0-0-0-0-0-0------------|
Db    |-9-9-9-9-9-9-9-9-------|-0-0-0-0-0-0-0-0------------|


(Let ring)

eb    |------------------------|---------------------------|
Bb    |------------------------|---------------------------|
Gb    |------------------------|---------------------------|
Db    |-4---------------------|----------------------------|
Ab    |-4---------------------|----------------------------|
Db    |-4---------------------|----------------------------|

PART III

Guitar 1 (Delay) (0:38)

eb    |---------------------------------------|--------------------------------------|
Bb    |-----------17--------------------------|--------------------------------------|
Gb    |-13-14-------14-14-13------13---------|---------------------------------------|
Db    |------------------------14-------------|-14-----------------------------------|
Ab    |---------------------------------------|--------------------------------------|
Db    |---------------------------------------|--------------------------------------|

eb    |---------------------------------------|---------------------------------10---|
Bb    |-----------17--------------------------|---------------------------------14---|
Gb    |-13-14-------14-14-13------13---------|---------------------------------------|
Db    |------------------------14-------------|-14-----------------------------------|
Ab    |---------------------------------------|--------------------------------------|
Db    |---------------------------------------|--------------------------------------|

Guitar 2 (0:38)

(Tremolo picked sixteenth notes)

eb	|---------------------------------------|------------------------------------|
Bb	|---------------------------------------|------------------------------------|
Gb	|---------------------------------------|------------------------------------|
Db	|---------------------------------------|------------------------------------|
Ab	|--9------------------------------------|--9---------------------------------|
Db	|-11------------------------------------|-11---------------------------------|

eb    |---------------------------------------|--------------------------------------|
Bb    |---------------------------------------|--------------------------------------|
Gb    |---------------------------------------|--------------------------------------|
Db    |---------------------------------------|--------------------------------------|
Ab    |-10------------------------------------|-12--------------10-------------------|
Db    |-12------------------------------------|-14--------------12-------------------|


PART IV

Guitar 1 (1:04)

eb	|---------------------------------------------------------------------------|
Bb	|---------------------------------------------------------------------------|
Gb	|---------------------------------------------------------------------------|
Db	|---------------------------------------------------------------------------|
Ab	|---------------------------------------------------------------------------|
Db	|---------------------------------------------------------------------------|

eb    |---------------------------------------|--------------------------------------|
Bb    |-----------17--------------------------|--------------------------------------|
Gb    |-13-14-------14-14-13------13---------|---------------------------------------|
Db    |------------------------14-------------|-14-----------------------------------|
Ab    |---------------------------------------|--------------------------------------|
Db    |---------------------------------------|--------------------------------------|

Guitar 2 (1:04)

eb	|-----------------------------------|----------------------------------|
Bb	|----------------5--5--5--5---------|-----------------5--5--5--5-------|
Gb	|----------------7--7--7--7---------|-----------------7--7--7--7-------|
Db	|-4--4--4--4------------------------|-4--4--4--4-----------------------|
Ab	|-4--4--4--4------------------------|-4--4--4--4-----------------------|
Db	|-4--4--4--4------------------------|-4--4--4--4-----------------------|

eb    |---------------------------------|--------------------------------------|
Bb    |---------------------------------|--8---8---8---8--14--14--14--14-------|
Gb    |---------------------------------|-11--11--11--11--19--19--19--19-------|
Db    |-0--0--0--0--0--0--0--0---------|---------------------------------------|
Ab    |-0--0--0--0--0--0--0--0---------|---------------------------------------|
Db    |-0--0--0--0--0--0--0--0---------|---------------------------------------|


PART V

Guitar 1 (2:12)

eb	|------------------------------------|
Bb	|------------------------------------|
Gb	|------------------------------------|
Db	|-2\--------------------------0---2--|
Ab	|-2\--------------------------0---2--|
Db	|-2\--------------------------0---2--|

PART VI

Guitar 1 (2:15)

eb    |------------------------------------|
Bb    |------------------------------------|
Gb    |------------------------------------|
Db    |-4~---0-4~---0-4~---0-4~---0-4-0----|
Ab    |-4~---0-4~---0-4~---0-4~---0-4-0----|
Db    |-4~---0-4~---0-4~---0-4~---0-4-0----|

                     p.m.     p.m.     p.m.    p.m.

PART VI

Guitar 1 (2:26)

eb    |------------------------------------|
Bb    |------------------------------------|
Gb    |------------------------------------|
Db    |------------------------------------|
Ab    |------------------------------------|
Db    |-4-4-4-4-4-4-4-4-4-4-4-4-4-4-4-4----|

	....................p.m..................................

(Last measure)

eb    |--------------------------------------|
Bb    |--------------------------------------|
Gb    |--------------------------------------|
Db    |--------------------------------------|
Ab    |--------------------------------------|
Db    |-4-4-4-4-4-4-4-4-x-x-x-x-x-x-x-x------|

	....................p.m..................................

PART VII

Guitar 1 (Delay, reverb) (2:52)

eb    |--------------------------------------|---------------------------------------|
Bb    |--------------------------------------|---------------------------------------|
Gb    |-------------7---9---7----------------|-------------6---7---6-----------------|
Db    |--------------------------------------|---------------------------------------|
Ab    |--------------------------------------|---------------------------------------|
Db    |--------------------------------------|---------------------------------------|

eb	|-------------------------------------|--------------------------------------|
Bb	|-------------------------------------|--------------------------------------|
Gb	|-------------7---9---6---------------|--------------------------------------|
Db	|-------------------------------------|--------------------------------------|
Ab	|-------------------------------------|--------------------------------------|
Db	|-------------------------------------|--------------------------------------|

Guitar 2 (2:39)

eb    |-------------------------------------|---------------------------------------|
Bb    |-------------------------------------|---------------------------------------|
Gb    |-------------------------------------|---------------------------------------|
Db    |----------9-----9-9------------------|---------9-----9-9----------12\--------|
Ab    |----------9-----9-9------------------|---------9-----9-9---------------------|
Db    |-9-9-9-9-9-----9-9----------9-9-9-9-|-9-9-9-9-9-----9-9----------------------|

eb    |-------------------------------------|---------------------------------------|
Bb    |-------------------------------------|---------------------------------------|
Gb    |-------------------------------------|---------------------------------------|
Db    |----------9-----9-9------------------|---------9-----9-9----------11\--------|
Ab    |----------9-----9-9------------------|---------9-----9-9---------------------|
Db    |-9-9-9-9-9-----9-9----------9-9-9-9-|-9-9-9-9-9-----9-9----------------------|

eb    |-------------------------------------|---------------------------------------|
Bb    |-------------------------------------|---------------------------------------|
Gb    |-------------------------------------|---------------------------------------|
Db    |----------5-----5-5------------------|---------5-----5-5-5-------------------|
Ab    |----------5-----5-5------------------|---------5-----5-5-5-------------------|
Db    |-5-5-5-5-5-----5-5----------5-5-5-5-|-5-5-5-5-5-----5-5-5--------------------|

eb    |-------------------------------------|---------------------------------------|
Bb    |-------------------------------------|---------------------------------------|
Gb    |-------------------------------------|---------------------------------------|
Db    |----------5-----5-5------------------|---------5-----5-5-5---------11\-------|
Ab    |----------5-----5-5------------------|---------5-----5-5-5-------------------|
Db    |-5-5-5-5-5-----5-5----------5-5-5-5-|-5-5-5-5-5-----5-5-5--------------------|

PART VIII

Guitar 1 (3:07)

eb    |-----------------------|-------------------------|
Bb    |-----------------------|-------------------------|
Gb    |-----------------------|-------------------------|
Db    |-----------------------|-------------------------|
Ab    |-----------------------|-------------------------|
Db    |-0-0----0-0----0-0----|-0-0----0-0---------------|

	..........................p.m..............................

eb    |-----------------------|-------------------------|
Bb    |-----------------------|-------------------------|
Gb    |----11-----------------|-------------------------|
Db    |-9---------------------|-------------------------|
Ab    |-----------------------|-------------------------|
Db    |---------0-0----0-0----|-0-0----0-0--------------|

	            ................p.m..............................

eb    |-----------------------|-------------------------|
Bb    |-----------------------|-------------------------|
Gb    |----9------------------|-------------------------|
Db    |-7---------------------|-------------------------|
Ab    |-----------------------|-------------------------|
Db    |---------0-0----0-0----|-0-0----0-0--------------|

		................p.m...........................

eb    |-----------------------|-------------------------|
Bb    |-----------------------|-------------------------|
Gb    |----7------------------|-------------------------|
Db    |-5---------------------|-------------------------|
Ab    |-----------------------|-------------------------|
Db    |---------0-0----0-0----|-0-0----0-0--------------|

		................p.m...................................

eb	|-----------------------|
Bb	|-----------------------|
Gb	|-6--6/7--7/9-11\-------|
Db	|-x--x-x---x-x--x-------|
Ab	|-4--4/5--5/7--9\-------|
Db	|-----------------------|


PART IX

Guitar 1 (Delay) (3:46)

eb	|-------------------------|---------------------------|
Bb	|-------------------------|---------------------------|
Gb	|---------------------2-2-|-1-------------------------|
Db	|-------------------------|-----2-0-------------------|
Ab	|-------------------------|---------------------------|
Db	|-0-----------------------|---------------------------|

eb	|-------------------------|---------------------------|
Bb	|-------------------------|---------------------------|
Gb	|---------------------2-2-|-1-------------------------|
Db	|-------------------------|-----2-0-------------------|
Ab	|-------------------------|---------------------------|
Db	|-0-----------------------|---------------------------|

eb	|-------------------------|---------------------------|
Bb	|-------------------------|---------------------------|
Gb	|---------------------2-2-|-1-------------------------|
Db	|-------------------------|-----2-0-------------------|
Ab	|-------------------------|---------------------------|
Db	|-4-----------------------|---------------------------|

eb	|-------------------------|--------------------------|
Bb	|-------------------------|--------------------------|
Gb	|--------------------6----|-----------5--------------|
Db	|-------------------------|-6----7-4-----------------|
Ab	|-------------------------|--------------------------|
Db	|-4-----------------------|--------------------------|

Guitar 2 (Clean, delay) (3:56)

eb	|-------------------------|--------------------------|
Bb	|-------------------------|--------------------------|
Gb	|--------------------6----|-----------5--------------|
Db	|-------------------------|-6----7-4-----------------|
Ab	|-------------------------|--------------------------|
Db	|-4-----------------------|--------------------------|

eb	|-------------------------|--------------------------|
Bb	|-------------------------|--------------------------|
Gb	|--------------------6----|-----------5--------------|
Db	|-------------------------|-6----7-4-----------------|
Ab	|-------------------------|--------------------------|
Db	|-4-----------------------|--------------------------|


PART X

Guitar 1 (Delay) (4:08)

(Tremolo picked sixteenth notes. First note of second measure is 14, remaining fifteen are 15)

eb    |-------------------------------------|----------------------------------------|
Bb    |-14----------------------------------|-14/15----------------------------------|
Gb    |-------------------------------------|----------------------------------------|
Db    |-------------------------------------|----------------------------------------|
Ab    |-------------------------------------|----------------------------------------|
Db    |-------------------------------------|----------------------------------------|

eb    |-------------------------------------|----------------------------------------|
Bb    |-14----------------------------------|-14/15----------------------------------|
Gb    |-------------------------------------|----------------------------------------|
Db    |-------------------------------------|----------------------------------------|
Ab    |-------------------------------------|----------------------------------------|
Db    |-------------------------------------|----------------------------------------|

Guitar 2 (Clean)

eb	|-------------------------------------|--------------------------------------|
Bb	|-------------------------------------|--------------------------------------|
Gb	|-------------------------------------|--------------------------------------|
Db	|-------------------------------------|--------------------------------------|
Ab	|-------------------------------------|--------------------------------------|
Db	|-4-----------------------------------|--------------------------------------|


PART XI

Guitar 1 (Delay) (4:15)

(Tremolo picked sixteenth notes. First note of second measure is 14, remaining fifteen are 15)

eb    |-------------------------------------|----------------------------------------|
Bb    |-14----------------------------------|-14/15----------------------------------|
Gb    |-------------------------------------|----------------------------------------|
Db    |-------------------------------------|----------------------------------------|
Ab    |-------------------------------------|----------------------------------------|
Db    |-------------------------------------|----------------------------------------|

eb    |-------------------------------------|----------------------------------------|
Bb    |-14----------------------------------|-14/15----------------------------------|
Gb    |-------------------------------------|----------------------------------------|
Db    |-------------------------------------|----------------------------------------|
Ab    |-------------------------------------|----------------------------------------|
Db    |-------------------------------------|----------------------------------------|

Guitar 2 (Delay) (4:15)

eb	|------------------------------------|--------------------------------------|
Bb	|------------------------------------|--------------------------------------|
Gb	|-------------------------------2-2--|-1------------------------------------|
Db	|-0----------------------------------|------2-0-----------------------------|
Ab	|-0----------------------------------|--------------------------------------|
Db	|-0----------------------------------|--------------------------------------|

eb	|------------------------------------|--------------------------------------|
Bb	|------------------------------------|--------------------------------------|
Gb	|-------------------------------2-2--|-1------------------------------------|
Db	|-0----------------------------------|------2-0-----------------------------|
Ab	|-0----------------------------------|--------------------------------------|
Db	|-0----------------------------------|--------------------------------------|

eb	|------------------------------------|--------------------------------------|
Bb	|------------------------------------|--------------------------------------|
Gb	|-------------------------------2-2--|-1------------------------------------|
Db	|-4----------------------------------|------2-0-----------------------------|
Ab	|-4----------------------------------|--------------------------------4b5-0-|
Db	|-4----------------------------------|--------------------------------------|

eb	|-----------------------------------|--------------------------------------|
Bb	|-----------------------------------|-------------5------------------------|
Gb	|-------------------------------6---|----------4---------------------------|
Db	|-4-4-4-4---------------------------|-6----7-------------------------------|
Ab	|-4-4-4-4---------------------------|--------------------------------------|
Db	|-4-4-4-4---------------------------|--------------------------------------|

(Last measures)

eb	|----------------------------------|--------------------------------------|
Bb	|----------------------------------|--------------------------------------|
Gb	|-----------------------------7----|-6------------------------------------|
Db	|-4-4-4-4--------------------------|------6--7----------------------------|
Ab	|-4-4-4-4--------------------------|--------------------------------------|
Db	|-4-4-4-4--------------------------|--------------------------------------|

eb	|----------------------------------|--------------------------------------|
Bb	|----------------------------------|-----------------/5~------------------|
Gb	|------------------------------7---|-6-----------4------------------------|
Db	|-4-4-4-4--------------------------|------6--7----------------------------|
Ab	|-4-4-4-4--------------------------|--------------------------------------|
Db	|-4-4-4-4--------------------------|--------------------------------------|


| /  slide up
| \  slide down
| h  hammer-on
| p  pull-off
| b bend
| ~  vibrato
| +  harmonic
| x  Mute note
===============================================================================
Добавлено: 11.05.2012
Другие материалы по этой песне:
  • Аккорды и текст

Страница создана 22.03.2012
http://primanota.ru/hopesfall/swamp-kittens-chords.htm
Привет, Гость.
Предлагаем пройти революционный курс по гитаре.
Подарок от PrimaNota.Ru, забирай!