PrimaNota.ru - самый крупный в мире бесплатный архив песенных текстов, аккордов, табулатур и нот


Hopesfall - Redshift - бас-таба, видео

Регистрация Запомнить меня
Войти через:  Facebook Google Twitter Vk Yandex Mail.ru

Hopesfall - Redshift - бас-таба, видео

Печатать
Просмотров: 161
Уроки эстрадного вокала в Санкт-Петербурге
~= let ring

G|-------------------------------------------------------------|
D|-------------------------------------------------------------|
A|-------------------------------------------------------------|
D|-0~----------7~----------0~----------4~----------0~----------|
Enter at about 0:11

G|-------------------------------------------------------------------------|
D|-------------------------------------------------------------------------|
A|-------------------------------------------------------------------------|
D|-4~----------0~----------4~----------0~----------7~----------0~----------|

G|-------------------------------------------------------------------------|
D|-------------------------------------------------------------------------|
A|-------------------------------------------------------------------------|
D|-4~----------0~----------4~----------0~----------4~----------0~----------|

G|-------------------------------------------------------------------------|
D|-------------------------------------------------------------------------|
A|-------------------------------------------------------------------------|
D|-7~----------0~----------4~----------0~----------4~----------0~----------|

G|--------------------------|
D|--------------------------|
A|--------------------------|
D|-4~-----------0~----------|

Simple instrumental. Please rate.
Добавлено: 10.05.2012
Другие материалы по этой песне:

Страница создана 10.05.2012
http://primanota.ru/hopesfall/redshift-chords.htm
Привет, Гость.
Предлагаем пройти революционный курс по гитаре.
Подарок от PrimaNota.Ru, забирай!