PrimaNota.ru - самый крупный в мире бесплатный архив песенных текстов, аккордов, табулатур и нот


Hopesfall - Paisley - текст песни, таба, видео

Регистрация Запомнить меня
Войти через:  Facebook Google Twitter Vk Yandex Mail.ru

Hopesfall - Paisley - текст песни, таба, видео

Печатать
Просмотров: 165
Artist: Hopesfall
Song: Paisley
Album: Magnetic North
Tabbed By Jose Cruz

Tuning: Drop Db
Db Ab Db Gb Bb Eb


INTRO Pt1/VERSE ********************************************
Guitar 1 reverb + medium distorn
this part is played with an E-Bow
Eb -10/6~~~/5~~~/3~~~/13~~~/11~~~/10~~~/---|
Bb ----------------------------------------|
Gb ----------------------------------------| x3
Db ----------------------------------------|
Ab ----------------------------------------|
Db ----------------------------------------|

Eb -10/6~~~/5~~~/3~~~/13~~~/15~~/11~~/10~~-
Bb ----------------------------------------|
Gb ----------------------------------------| x1
Db ----------------------------------------|
Ab ----------------------------------------|
Db ----------------------------------------|

Guitar 2 reverb with delay
Eb ----------20-----------18----- ---17---1818/12121212/1313----|
Bb ---1817~~~------1817~~~---1817~~~----------------------------|
Gb -17-----------17--------17-----------------------------------|
Db -------------------------------------------------------------|
Ab -------------------------------------------------------------|
Db -------------------------------------------------------------|
*************************************************************

INTRO Pt2 ***************************************************
Guitar 1
Eb 20-18-17-/13--/20-18-17-/12-13-15-----15-----------------------|
Bb ---------------------------------13~~~---11~~~---11/1010p10.5--|
Gb ---------------------------------------------------------------|
Db ---------------------------------------------------------------|
Ab ---------------------------------------------------------------|
Db ---------------------------------------------------------------|

Guitar 2
Eb ---------------------------------------------------------------|
Bb ---------------------------------------------------------------|
Gb ---------------------------------------------------------------|
Db -------7--------10----10--9----------12---------10101010h1111--|
Ab ----5--------8-------------------10----------------------------|
Db -5--------8---------0--------10--------------------------------|
*************************************************************

1st INTERLUDE *************************************************
Guitar 1
Eb ------------------------------------|
Bb ------------------------------------|
Gb ------------------------------------|
Db -5---2---5---2---5---2---5---2-3----|
Ab -3---0---3---0---3---0---3---0-1----|
Db -3---0---3---0---3---0---3---0-1----|

Guitar 3 (or Guitar 2 Clean)
Eb ------------------------------------|
Bb ------------------------------------|
Gb -5---2---5---2---5---2---5---2-3----|
Db -5---2---5---2---5---2---5---2-3----|
Ab -3---0---3---0---3---0---3---0-1----|
Db ------------------------------------|
***************************************************************

2nd INTERLUDE *************************************************
Guitar 2 plays verse
Guitar 3 (or Guitar 1 Clean)
Eb ----------------------------------------|
Bb ----------------------------------------|
Gb ----------------------------------------|
Db ----1514~~~--1514~~~--1514~~~--1514~~15-|
Ab --15-------15-------15-------15---------|
Db ----------------------------------------|
***************************************************************

Lyrics:
Could i beg of myself the blame maybe
a little more stretch to my neck
and i could see
above it all
this day go
so slow
i'm finding time
with no devotion

we prance around
unfavorably
where's the cure for
the bored and lonely
if not for you
there's no glory
in stargazing battles
of the bored and lonely

I feel this night
an ending, an entrance in sight
I feel this night
an ending, an entrance in sight

(feel tonight)
(entrance, ending in sight)
feel tonight
an entrance, ending in sight
feel tonight
an entrance, ending in sight
and i know how to feel two circuits, to feel two circuits (feel tonight)
an entrance, ending in sight
and i know how to feel two circuits, to feel two circuits (feel tonight)
an entrance, ending in sight
and i know how
(feel tonight)
(entrance, ending in sight)


A nice peaceful song by Hopesfall, for timing listen to the song...
Actually i heard 4 guitars on this song...
Guitar 1 and 2 i tabbed a 3rd guitar that only plays the e-bow parts
and a 4th acoustic guitar that plays in the first interlude.

Enjoy it!
Добавлено: 05.03.2012
Другие материалы по этой песне:

Страница создана 05.03.2012
http://primanota.ru/hopesfall/paisley-chords.htm
Привет, Гость.
Предлагаем пройти революционный курс по гитаре.
Подарок от PrimaNota.Ru, забирай!