PrimaNota.ru - самый крупный в мире бесплатный архив песенных текстов, аккордов, табулатур и нот


Hopesfall - Owl - текст песни, таба, видео

Регистрация Запомнить меня
Войти через:  Facebook Google Twitter Vk Yandex Mail.ru

Hopesfall - Owl - текст песни, таба, видео

Печатать
Просмотров: 144
----------------------------------------------------------------
                        Owl - Hopesfall
----------------------------------------------------------------
Tabbed by: Kristyn Lee
Email: spot_the_village_loony_836@hotmail.com

Tuning: Db Ab Db Gb Bb eb

Intro  Guitar 1
eb|----------------------------|
Bb|----------------------------|
Gb|---6-6----6~--6-6----6~-----|
Db|---0-0-xx-0~--0-0-xx-0~-----|
Ab|---0-0-xx-0~--0-0-xx-0~-----|
Db|---0-0-xx-0~--0-0-xx-0~-----|
    
Verse  guitar 1
eb|---------------------------------------------------------------------|
Bb|--1414---14-1414141414---14141414------------------------------------|
Gb|--1414---14-1414141414---14141414-1111---1111-11111111---1111-1111---|
Db|--0-0-xx-0--0-0-0-0-0-xx-0-0-0-0--9-9-xx-9-9--9-9-9-9-xx-9-9--9-9----|
Ab|--0-0-xx-0--0-0-0-0-0-xx-0-0-0-0--9-9-xx-9-9--9-9-9-9-xx-9-9--9-9----|
Db|--0-0-xx-0--0-0-0-0-0-xx-0-0-0-0--9-9-xx-9-9--9-9-9-9-xx-9-9--9-9----|
 
eb|-----------------------------------|
Bb|-----------------------------------|
Gb|---7-6----7-6-66-7-6----7-6-66-----|
Db|---5-5-xx-5-5-55-5-5-xx-5-5-55-----|
Ab|---5-5-xx-5-5-55-5-5-xx-5-5-55-----|
Db|---5-5-xx-5-5-55-5-5-xx-5-5-55-----|

      guitar 2
eb|------------------------------------------|
Bb|--1414-xx-14-1414-14-1414-xx-14-1414-14---|
Gb|--1414-xx-14-1414-14-1414-xx-14-1414-14---|x2
Db|------------------------------------------|
Ab|------------------------------------------|
Db|------------------------------------------|

eb|------------------------------------------|
Bb|---1414-xx-15-1414-15-1414-15-1414--------|
Gb|---1414-xx-15-1414-15-1414-15-1414--------|
Db|------------------------------------------|
Ab|------------------------------------------|
Db|------------------------------------------|

0:35
2nd part of verse
 Guitar 1
eb|-----------|
Bb|-----------|
Gb|-----------|
Db|--0~~------|
Ab|--0~~------|
Db|--0~~------|
  Guitar 2
eb|-------------------------------|
Bb|-------------------------------|
Gb|--11-1111-11-1111-11-12--------|
Db|--x--x-x--x--x-x--x--x---------|x3
Ab|--9--9-9--9--9-9--9--10--------|
Db|-------------------------------|
0:45  both guitars
eb|----------------|
Bb|----------------|
Gb|----------------|
Db|----------------|
Ab|---00000000-----|
Db|---00000000-----|
      ........
Chorus
0:46  Guitar 1
eb|--------------------------|
Bb|--------------------------|
Gb|---444--------------------|
Db|---444-0-5/7-5-4/5-5------|
Ab|---222-0-5/7-5-4/5-5------|
Db|-------0-5/7-5-4/5-5------|
      Guitar 2
eb|-----------------------------------------------------|
Bb|-----------------------------------------------------|
Gb|---11/12\11\9-7/9-7-6/7--11/12\11\9-7/9-7/141414-----|
Db|---x--x--x-\x-x-x-x-x-x--x--x--x--x-x-x-x-x-x-x------|
Ab|---9/-10\9-\7-5/7-5-4/5--9/-10\9-\7-5/7-5/121212-----|
Db|-----------------------------------------------------|

1:10  Both Guitars play this i think
eb|-----------------------------------------------------|
Bb|-----------------------------------------------------|
Gb|-----------------------------------------------------|x4
Db|---9-9-129-7/99-9-9-129-7/9--------------------------|
Ab|---9-9-9-9-7/99-9-9-9-9-7/9--------------------------|
Db|---9-9-9-9-7/99-9-9-9-9-7/9--------------------------|

1:16 - 1:36 guitar 1 
eb|------10---10---10---9---9---9-------|
Bb|-------------------------------------|
Gb|----7----7----7----7---7---7---------|
Db|-------------------------------------|
Ab|-------------------------------------|
Db|-------------------------------------|
1:22 Guitar 2    
      "in a season of collapsed love..."
eb|--------------------------------------------|
Bb|--------------------------------------------|
Gb|--------------------------------------------|
Db|---0~---0~---4444-2222---0~---0~---4444-----|
Ab|---0~---0~---4444-2222---0~---0~---4444-----|
Db|---0~---0~---4444-2222---0~---0~---4444-----|

Repeat first part of verse


2:16  guitar 1  
It goes something like this
eb|--------------------------------|
Bb|---7-7-7-7-7--------------------|
Gb|----7-7-7-7-7-9p7h9p7h9p7h9-----|x8
Db|--------------------------------|
Ab|--------------------------------|
Db|--------------------------------|

Guitar 2 plays something like this
eb|---12----12----12----12----12----12----12----12--------|
Bb|-----14----14----14----14----14----14----14----14------|
Gb|-------14----14----14----14----14----14----14----14----|
Db|-------------------------------------------------------|
Ab|-------------------------------------------------------|
Db|-------------------------------------------------------|

eb|---14----14----14----14----14----14----14----14---------|
Bb|-----14----14----14----14----14----14----14----14-------|
Gb|-------14----14----14----14----14----14----14----14-----|
Db|--------------------------------------------------------|
Ab|--------------------------------------------------------|
Db|--------------------------------------------------------|

2:39  guitar 1
eb|----------------------------------------|
Bb|----------------------------------------|
Gb|----------------------------------------|x4
Db|---9-9-129--------9-9-129---------------|
Ab|---9-9-9-9-7/9----9-9-9-9-7/9-----------|
Db|---9-9-9-9--------9-9-9-9---------------|
      guitar 2          ?? weird effect here
eb|----------------------------------------|
Bb|--------7------------7------------------|
Gb|----------7-6h7--------7-9h10p9---------|x4
Db|---5-5-----------5-5--------------------|
Ab|---5-5-----------5-5--------------------|
Db|---5-5-----------5-5--------------------|

Chorus 
      Guitar 1
eb|--------------------------|
Bb|--------------------------|
Gb|---444--------------------|
Db|---444-0-5/7-5-4/5-5------|
Ab|---222-0-5/7-5-4/5-5------|
Db|-------0-5/7-5-4/5-5------|
      Guitar 2
eb|-----------------------------------------------------|
Bb|-----------------------------------------------------|
Gb|---11/12\11\9-7/9-7-6/7--11/12\11\9-7/9-7/141414-----|
Db|---x--x--x-\x-x-x-x-x-x--x--x--x--x-x-x-x-x-x-x------|
Ab|---9/-10\9-\7-5/7-5-4/5--9/-10\9-\7-5/7-5/121212-----|
Db|-----------------------------------------------------|

     "in a season of collapsed love..."
eb|--------------------------------------------|
Bb|--------------------------------------------|
Gb|--------------------------------------------|
Db|---0~---0~---4444-2222---0~---0~---4444-----|
Ab|---0~---0~---4444-2222---0~---0~---4444-----|
Db|---0~---0~---4444-2222---0~---0~---4444-----|

End
eb|-----------------|
Bb|-----------------|
Gb|-----------------|
Db|---0-0----0~-----|
Ab|---0-0-00-0~-----|
Db|---0-0-00-0~-----|
          ..


************************************

| /   slide up
| \   slide down
| h   hammer-on
| p   pull-off
| ~   vibrato
| +   harmonic
| x   Mute note
| b   Bend
| pb  Pre-bend
| br  Bend release
| pbr Pre-bend release
| brb Bend release bend

************************************
Добавлено: 17.05.2012
Другие материалы по этой песне:
  • Аккорды и текст

Страница создана 20.04.2012
http://primanota.ru/hopesfall/owl-chords.htm
Привет, Гость.
Предлагаем пройти революционный курс по гитаре.
Подарок от PrimaNota.Ru, забирай!