PrimaNota.ru - самый крупный в мире бесплатный архив песенных текстов, аккордов, табулатур и нот


Hopesfall - It Happens - текст песни, бас-таба, видео

Регистрация Запомнить меня
Войти через:  Facebook Google Twitter Vk Yandex Mail.ru

Hopesfall - It Happens - текст песни, бас-таба, видео

Печатать
Просмотров: 140
Band: Hopesfall
Song: It Happens
Album: A Types
Tabbed by: choke383
Drop D Tuning: GDAD


0:03
G|---------------------------------------------------------------------------|
D|---------------------------------------------------------------------------|
A|---------------------------------------------------------------------------|
D|66666\222224444466666\222224444466666-222224444466666\22222444442~-----2~--|


0:21
G|-----------------------------------------------------------------------------------|
D|-----------------------------------------------------------------------------------|
A|-----------------------------------------------------------------------------------|
D|1/9\2-2-2/6-6-4-4-4--1/9\2-2-2/4-4-1-1-1--66--6-6-6-99--2-2-2-1/9\2-2-2/4-4-1---1--|


0:41
G|-----------------------------|
D|-----------------------------|
A|-----------------------------|
D|6--66--6-6--66--4-4-x-2~-----|x2


0:52
G|---------------------------------|
D|---------------------------------|
A|---------------------------------|
D|66666-22222-44444-44444-4--44-4--|x4


1;14
G|-----------------|
D|-----------------|
A|-----------------|
D|2--2-----2--2----|


1:19
G|-----------------------------------------------------------------------------------|
D|-----------------------------------------------------------------------------------|
A|-----------------------------------------------------------------------------------|
D|1/9\2-2-2/6-6-4-4-4--1/9\2-2-2/4-4-1-1-1--66--6-6-6-99--2-2-2-1/9\2-2-2/4-4-1---1--|


1:41
G|-----------------------------|
D|-----------------------------|
A|-----------------------------|
D|6--66--6-6--66--4-4-x-2~-----|x2


1:51
G|---------------------------------|
D|---------------------------------|
A|---------------------------------|
D|66666-22222-44444-44444-4--44-4--|x4


2:12
G|--------------------------------------------|
D|--------------------------------------------|
A|--------------------------------------------|
D|2--2-----2--2---6-6---2--2------2--2---6-8--|x2


2:36
G|---------------------------------|
D|---------------------------------|
A|---------------------------------|
D|66666-22222-44444-44444-4--44-4--|x4


2:56
G|------------------------------------------------------------------|
D|------------------------------------------------------------------|
A|------------------------------------------------------------------|
D|6-66-66-6-66-6-/-9-99-99-9-99-9-\-4-44-44-4-44-4--2-22-22-2-22-2--|x4


3:39
G|---------------------------------|
D|---------------------------------|
A|---------------------------------|
D|66666-22222-44444-44444-4--44-4--|x4

G|-----|
D|-----|
A|-----|
D|--6--|



Any comments, questions or jokes send to style444@hotmail.com
Добавлено: 02.05.2012
Другие материалы по этой песне:

Страница создана 15.03.2012
http://primanota.ru/hopesfall/it-happens-chords.htm
Привет, Гость.
Предлагаем пройти революционный курс по гитаре.
Подарок от PrimaNota.Ru, забирай!