PrimaNota.ru - самый крупный в мире бесплатный архив песенных текстов, аккордов, табулатур и нот


Hopesfall - Escape Pod For Intangibles - текст песни, бас-таба, видео

Регистрация Запомнить меня
Войти через:  Facebook Google Twitter Vk Yandex Mail.ru

Hopesfall - Escape Pod For Intangibles - текст песни, бас-таба, видео

Печатать
Просмотров: 119
Intro
G|----------------------------------------------------|
D|----------------------------------------------------|
A|----------------------------------------------------|
D|--3-3-3-3-----0~------------------------------------|

"Clean Verse"
G|--------------------------------|
D|--------------------------------|
A|--------------------------------|
D|--3~------0~-------8~--------0~-|

"Ditorted Verse"
Outro
G|---------------------------------|
D|---------------------------------|
A|---------------------------------|
D|--3-3-3-3--0~---------8-8-8-8-0~-|

End On
G|-----------------------------------|
D|-----------------------------------|
A------------------------------------|
D|--8-8-8-8-0~-----------------------|

Please Rate this tab
Добавлено: 28.06.2012
Другие материалы по этой песне:

Страница создана 23.04.2012
http://primanota.ru/hopesfall/escape-pod-for-intangibles-chords.htm
Привет, Гость.
Предлагаем пройти революционный курс по гитаре.
Подарок от PrimaNota.Ru, забирай!