PrimaNota.ru - самый крупный в мире бесплатный архив песенных текстов, аккордов, табулатур и нот


Hopesfall - Decoys Like Curves - текст песни, бас-таба, видео

Регистрация Запомнить меня
Войти через:  Facebook Google Twitter Vk Yandex Mail.ru

Hopesfall - Decoys Like Curves - текст песни, бас-таба, видео

Печатать
Просмотров: 106
~=let ring
x=mute

G|-------------------------------------------------------|
D|-------------------------------------------------------|
A|-------------------------------------------------------|
D|-0-0000-0-0000-0-0000-xxxx-4-4444-4-4444-4-4444-4-4444-|

G|---------------------------------------------------------|
D|---------------------------------------------------------|
A|---------------------------------------------------------|
D|-0-0000-0-0000-0-0000-0-0000-4-4444-4-4444-4-4444-4-4444-|

G|---------------------------------------------------------|
D|---------------------------------------------------------|
A|---------------------------------------------------------|
D|-7-7777-7-7777-7-7777-7-7777-4-4444-4-4444-4-4444-4-4444-|

G|---------------------------------------------------------|
D|---------------------------------------------------------|
A|---------------------------------------------------------|
D|-0-0000-0-0000-0-0000-0-0000-4-4444-4-4444-4-4444-4-4444-|

G|-----------------------------|
D|-----------------------------|
A|-----------------------------|
D|-7-7777-7-7777-7-7777-7-7777-|

G|-------------------------------------------------------|
D|-------------------------------------------------------|
A|-00000000-00002222-22222222-55555555-55557777-77777777-|
D|-------------------------------------------------------|

G|-------------------------------------------------------|
D|-------------------------------------------------------|
A|-0~-----------2~-------------------------7~------------| x3
D|----------------------------0~-------------------------|

G|--------------------------------------------------------|
D|------------------------------------------------------5-|
A|-0~-----------2~-------------------------7~-------------| 
D|----------------------------0~--------------------------|
Listen closely for the 5

G|---------------------------------------------------------------------------------|
D|---------------------------------------------------------------------------------|
A|---------------------------------------------------------------------------------|
D|-999-99999-999-99999-555-55555-555-55555-222-22222-222-22222-000-00000-000-00000-| 

G|-------------------------------------------------------------|
D|-------------------------------------------------------------|
A|-------------------------------------------------------------|
D|-999-99999-999-99999-555-55555-555-55555-222-22222-222-22222-|

G|-------------------------------------|
D|-------------------------------------|
A|-------------------------------------|
D|-000--00--222--22--999--99--555--55--|

G|-------------------------------------------------------------------------|
D|-------------------------------------------------------------------------|
A|-------------------------------------------------------------------------|
D|-00000000-00000000-22222222-22222222-55555555-55555555-77777777-77777777-|

G|-----------------------------------------|
D|-----------------------------------------|
A|---------------------5~--------7~--------| x2
D|-9~--------7~----------------------------|

G|-------------------------------------|
D|-------------------------------------|
A|-------------------------------------| x7 (I think, just play til the end)
D|-99999999-00000000-55555555-44444444-|

  Please rate.
Добавлено: 09.07.2012
Другие материалы по этой песне:

Страница создана 12.05.2012
http://primanota.ru/hopesfall/decoys-like-curves-chords.htm
Привет, Гость.
Предлагаем пройти революционный курс по гитаре.
Подарок от PrimaNota.Ru, забирай!