PrimaNota.ru - самый крупный в мире бесплатный архив песенных текстов, аккордов, табулатур и нот


Hopesfall - Dead In Magazine - бас-таба, видео

Регистрация Запомнить меня
Войти через:  Facebook Google Twitter Vk Yandex Mail.ru

Hopesfall - Dead In Magazine - бас-таба, видео

Печатать
Просмотров: 103
/= slide up
~= let ring

G|--------------------|
D|--------------------|
A|-4-4x0~--4-4x0~-----| x6
D|--------------------|

G|-----------------------|
D|-----------------------|
A|-------4~--------------|
D|-4~----------2~--------|

G|--------------------|
D|--------------------|
A|-444----------------| x4
D|------22-2--444--44-|

G|------------------------------------------------------|
D|------------------------------------------------------|
A|------4444----------------------4444------------------|
D|-66-------22222222-22222222-6-------77777777-77777777-|

G|-------------------------------------------|
D|-------------------------------------------|
A|-------------------------------------------|
D|-47450~---47450~---47450~---47450~---47450-|

G|-------------------------------------------------------------------------|
D|-------------------------------------------------------------------------|
A|-22222222-2222-----------------------------------------------------------| x2
D|--------------4745-77777777-77774745-22222222-22224745-55555555-55554745-| 

G|----------------------------|
D|----------------------------|
A|-5~------------5~-----------|
D|----0~-0~-4745----0~-0~4745-|

G|-----------------------------------------------------|
D|-----------------------------------------------------|
A|-----------------------------------------4~----------|
D|-4040754040754040-4040754040754040-404075----4~--7~--|

G|------------------------------------------------|
D|------------------------------------------------|
A|-4---------4---------4---------4---------4------|
D|--447700000-447700000-447700000-447700000--4-7~-|

Pause

G|---------------|
D|---------------|
A|---------------| x4
D|-4~---/7~------|
Bass Comes Back In At About 2:40

G|------------------------|
D|------------------------|
A|------------7-77-2-2/4~-| x4
D|-4-44-/7~---------------|

G|----------|
D|----------|
A|----------|
D|-4-44-/7~-|

 Please rate.
Добавлено: 18.04.2012
Другие материалы по этой песне:
  • Аккорды и текст

Страница создана 18.04.2012
http://primanota.ru/hopesfall/dead-in-magazine-chords.htm
Привет, Гость.
Предлагаем пройти революционный курс по гитаре.
Подарок от PrimaNota.Ru, забирай!