PrimaNota.ru - самый крупный в мире бесплатный архив песенных текстов, аккордов, табулатур и нот


Hopesfall - Dana Walker - текст песни, таба, бас-таба, видео

Регистрация Запомнить меня
Войти через:  Facebook Google Twitter Vk Yandex Mail.ru

Hopesfall - Dana Walker - текст песни, таба, бас-таба, видео

Печатать
Просмотров: 197
-------------------------------------------------------------------------------
“Dana Walker” - Hopesfall
-------------------------------------------------------------------------------
Tabbed by: holy ghost

Tuning: D A D G b e
Hopesfall
“Dana Walker”
The Satelite Years

Intro (not sure about that last chord)

e|------------------------------------------------|
B|------------------------------------------------|
G|------------------------------------------------|
D|-9-9--1010-9-9--1010-9-9--1010-5-5--5-5--5—-----|
A|-7-7--7-7--7-7--7-7--7-7--7-7--3-3--3-3--3------|
D|-7-7--7-7--7-7--7-7--7-7--7-7--3-3--3-3--3------|

Pre verse chords             palm mute this whole part---------------------->
“baby not another stare”
e|---------------------------|-----------------------------------------------|
B|---------------------------|-----------------------------------------------|
G|---------------------------|-----------------------------------------------|
D|-3----5----2------3--------|-----------------------------------------------|
A|-3----5----2------3--------|-7-7-7-7-7-7-7-7-7-7-7-7-7-7-7-7-7-7-7-7-7-7-7-|
D|-3----5----2------3--------|-7-7-7-7-7-7-7-7-7-7-7-7-7-7-7-7-7-7-7-7-7-7-7-|

There's two guitar parts to this 
Guitar A-----------------------> guitar B----------------------------------->
e|------------------------------|--------------------------------------------|
B|-----and-I-will-post----------|-------------this-part-too------------------|
G|------------------------------|--------------------------------------------|
D|-------it-later---------------|--------------------------------------------|
A|------------------------------|--------------------------------------------|
D|------------------------------|--------------------------------------------|

The this part
  p.m.------>then let ring out
e|---------------------------------|
B|---------------------------------|   can't figure out the lead part that
G|---------------------------------|   follows this. I know, I suck.
D|-----------3---------------------|
A|-7-7--2-2--3---------------------|
D|-7-7--2-2--3---------------------|

Play these chords clean      then this clean over it 
          Or...
e|--0-----------0-----------|----------------------|
B|--0-----------0-----------|----------------------|
G|--2-----------2—(5)-------|---/7--/9--/10-12-14--|
D|--2—(3)-------2—(5)-------|----------------------|
A|--0—(3)-------0—(3)-------|----------------------|
D|----(3)---------(3)-------|----------------------|


And then this part over the A and G/C chords

e|---------------------------------------------------------------------------|
B|-13-13-13-13-13-13-12-12-12-12-10-10-10-10-10------------------------------|
G|---------------------------------------------------------------------------|
D|---------------------------------------------------------------------------|
A|---------------------------------------------------------------------------|
D|---------------------------------------------------------------------------|

Play it more times with distortion.

Then this part
Guitar A
e|---------------------------------------------------------------------------|
B|---------------------------------------------------------------------------|
G|--9-9-9-9-9-9/12-12-12-12-12-12-12-12--7-7-7-7-7-7/5-5-5-5-5-5-5-5---------|
D|---------------------------------------------------------------------------|
A|--7-7-7-7-7-7/10-10-10-10-10-10-10-10--5-5-5-5-5-5/3-3-3-3-3-3-3-3---------|
D|---------------------------------------------------------------------------|

                         “you're the one that wants to feel...”                      
e|---------------------------------------------|
B|---------------------------------------------|
G|----------12/10-----5/7----------------------|
D|------------------------2-2-2-2-2-2-2-2------|
A|--0-0-0-0-10/8--0-0-3/5-2-2-2-2-2-2-2-2------|
D|--0-0-0-0-------0-0-----2-2-2-2-2-2-2-2------|

e|-------|
B|-------| strum this chord for a couple of measures
G|--5----| then back to the previous part
D|-------|
A|--3----|
D|-------|

Outro
Guitar A                                                      

e|----------------------------------|
B|----------------------------------|
G|-5-5-5-5-5-5-5-5-5-5-5-5/9-9-9-9--|
D|----------------------------------|
A|-3-3-3-3-3-3-3-3-3-3-3-3/7-7-7-7--|
D|----------------------------------|
Guitar B
e|----------------------------------|
B|----------------------------------|
G|-5-5-5-5-7-7-7-7-9-9-9-9-9-9-9-9--|
D|----------------------------------|
A|-3-3-3-3-5-5-5-5-7-7-7-7-7-7-7-7--|
D|----------------------------------|
That's most of it.
Please help with parts I couldn't figure out.
Any help would be great with this and I'm open to criticism.
Thanks. enjoy


| /  slide up
| \  slide down
| h  hammer-on
| p  pull-off
| ~  vibrato
| +  harmonic
| x  Mute note
===============================================================================

Добавлено: 24.05.2012
Другие материалы по этой песне:
  • Аккорды и текст

Страница создана 28.03.2012
http://primanota.ru/hopesfall/dana-walker-chords.htm
Привет, Гость.
Предлагаем пройти революционный курс по гитаре.
Подарок от PrimaNota.Ru, забирай!