PrimaNota.ru - самый крупный в мире бесплатный архив песенных текстов, аккордов, табулатур и нот


Hopesfall - Comfort - текст песни, таба, бас-таба, видео

Регистрация Запомнить меня
Войти через:  Facebook Google Twitter Vk Yandex Mail.ru

Hopesfall - Comfort - текст песни, таба, бас-таба, видео

Печатать
Просмотров: 150
Drop-D Tuning

0:00 Guitar 1
E|------------------------------|
B|------------------------------|
G|------------------------------|
D|--4-000--4-000--4---4---------| X8
A|--4-000--4-000--4---4---------|
D|--4-000--4-000--4---4---------|

0:10 Guitar 2 comes in
E|------------------------------|
B|------------------------------|
G|------------------------------|
D|--6-444--6-444--4---4---------| X4
A|--4-222--4-222--2---2---------|
D|------------------------------|

0:19 Guitar 1
E|------------------------------|
B|------------------------------|
G|------------------------------|
D|--0--4---7--777---------------| X8
A|--0--4---7--777---------------|
D|--0--4---7--777---------------|

0:19 Guitar 2
E|------------------------------|
B|--7p5-7p5-4~~-----------------|
G|------------------------------|
D|------------------------------| X8
A|------------------------------|
D|------------------------------|

0:33 Guitar 1
E|------------------------------|
B|------------------------------|
G|------------------------------|
D|------------------------------| X8
A|--0--4-7---4h5p4-0------------|
D|--0--4-7----------------------|

0:47 Guitar 1
E|------------------------------|
B|------------------------------|
G|------------------------------|
D|------------------------------| X10
A|--4--44--44--44--7-7----------|
D|--6--66--66--66--7-7----------|

1:18 Guitar 1
E|----------------------------------------------------|
B|----------------------------------------------------|
G|---------------------------6-6-6-6-66---7-7-7-7-77--|
D|--6-6-6-6-66---7-7-7-7-7---6-6-6-6-66---7-7-7-7-77--| X2
A|--4-4-4-4-44---7-7-7-7-7---4-4-4-4-44---5-5-5-5-55--|
D|--4-4-4-4-44---7-7-7-7-7----------------------------|

1:18 Guitar 2
E|----------------------------------------------------|
B|----------------------------------------------------|
G|---------------------------9-9-9-9-9p7--6-6-6-6-6---|
D|--6-6-6-6-66---7-7-7-7-7---9-9-9-9-9p7--6-6-6-6-6---|
A|--4-4-4-4-44---7-7-7-7-7---7-7-7-7-7p5--4-4-4-4-4---|
D|----------------------------------------------------|
(I'm not sure about this part, it's hard to make out)

1:33 Guitar 1
E|-----------------------------------------------------|
B|-----------------------------------------------------|
G|-----------------------------------------------------|
D|----------2-2---------4-4-----------2-2---------5-5--| X4
A|-----------------------------------------------------|
D|---4h5p40------4h5p40--------4h5p40------4h5p40------|

1:33 Guitar 2
E|----------------------------------------------------|------|
B|----------------------------------------------------|------|
G|----------------------------------------------------|------|
D|----------9-9---------7-7-----------6-6---------2-2-|-2-2~-| X4
A|----------7-7---------5-5-----------4-4---------2-2-|-2-2~-|
D|------------------------------------------------2-2-|-2-2~-|
                                                (let it ring on fourth)

2:06 Guitar 1 after bass solo thing
E|------------------------------|
B|------------------------------|
G|------------------------------|
D|--4-000--4-000--4---4---------| X4
A|--4-000--4-000--4---4---------|
D|--4-000--4-000--4---4---------|

E|---------------------|---------|
B|---------------------|---------|
G|---------------------|---------|
D|---------------------|---------| X8
A|--0--4-7---4h5p4-0---|--0~~~---|
D|--0--4-7-------------|--0~~~---|
                   (let it ring on eighth)

2:45 Guitar 2
E|-------4----4--------4---4-----|
B|-----5-------5-----5------5----|
G|---6------6------6------6------|
D|-------------------------------| X9
A|-------------------------------|
D|-------------------------------|

3:20
E|-------7----7--------7---7-----|
B|-----5-------5-----5------5----|
G|---6------6------6------6------|
D|-------------------------------| X1
A|-------------------------------|
D|-------------------------------|

3:24
E|-------4----4--------4---4-----|
B|-----5-------5-----5------5----|
G|---6------6------6------6------|
D|-------------------------------| X1
A|-------------------------------|
D|-------------------------------|

3:28 Guitar 2 stops, Guitar 1 comes in
E|-------------------------------|
B|-------------------------------|
G|-------------------------------|
D|--4-4-4-4-44---4-4-4-4-44------| X1
A|--4-4-4-4-44---4-4-4-4-44------|
D|--4-4-4-4-44---4-4-4-4-44------|

3:32 Guitar 1 stops, Guitar 2 comes back in
E|-------4----4--------4---4-----|
B|-----5-------5-----5------5----|
G|---6------6------6------6------|
D|-------------------------------| X1
A|-------------------------------|
D|-------------------------------|

3:36 Guitar 2 stops, Guitar 1 comes in
E|-------------------------------|
B|-------------------------------|
G|-------------------------------|
D|--4-4-4-4-44---4-4-4-4-44------| X1
A|--4-4-4-4-44---4-4-4-4-44------|
D|--4-4-4-4-44---4-4-4-4-44------|

3:40 Guitar 1 stops, Guitar 2 comes back in
E|-------4----4--------4---4-----|
B|-----5-------5-----5------5----|
G|---6------6------6------6------|
D|-------------------------------| X1
A|-------------------------------|
D|-------------------------------|

3:43 Guitar 2 stops, Guitar 1 comes in
E|-------------------------------|
B|-------------------------------|
G|-------------------------------|
D|--4-4-4-4-44---4-4-4-4-44------| X1
A|--4-4-4-4-44---4-4-4-4-44------|
D|--4-4-4-4-44---4-4-4-4-44------|

3:47
E|-------------------------------|
B|-------------------------------|
G|-------------------------------|
D|--4--7-4--7-44-7---------------| X4
A|--4--7-4--7-44-7---------------|
D|--4--7-4--7-44-7---------------|

3:54 Guitar 1
E|-----------------------------------------------------|
B|-----------------------------------------------------|
G|-----------------------------------------------------|
D|----------2-2---------4-4-----------2-2---------5-5--| X4
A|-----------------------------------------------------|
D|---4h5p40------4h5p40--------4h5p40------4h5p40------|

3:54 Guitar 2
E|-----------------------------------------------------|
B|-----------------------------------------------------|
G|-----------------------------------------------------|
D|----------9-9---------7-7-----------6-6---------2-2--| X4
A|----------7-7---------5-5-----------4-4---------2-2--|
D|------------------------------------------------2-2--|

4:13
Guitar 1
E|------------------------------|
B|------------------------------|
G|------------------------------|
D|------------------------------| X10
A|--4--44--44--44--7-7----------|
D|--6--66--66--66--7-7----------|

That's it. It's a long tab, most of it is just repeated stuff.
Добавлено: 22.04.2012
Другие материалы по этой песне:
  • Аккорды и текст

Страница создана 22.04.2012
http://primanota.ru/hopesfall/comfort-chords.htm
Привет, Гость.
Предлагаем пройти революционный курс по гитаре.
Подарок от PrimaNota.Ru, забирай!