PrimaNota.ru - самый крупный в мире бесплатный архив песенных текстов, аккордов, табулатур и нот


Hopesfall - A Man Exits - текст песни, бас-таба, видео

Регистрация Запомнить меня
Войти через:  Facebook Google Twitter Vk Yandex Mail.ru

Hopesfall - A Man Exits - текст песни, бас-таба, видео

Печатать
Просмотров: 103
^^= double digit
~= let ring
= slide down
/= slide up

G|-----------------------------------|
D|-----------------------------------|
A|-----------------------------------| x2
D|-222-2-45/9/10~---222-2-45/9/10~---|
              ^^               ^^
G|--------------------------------------------------------------------------|
D|--------------------------------------------------------------------------|
A|-33-00-33-00-3--------33-00-33-00-33-00-33-00-33-00-33-00-33-00-33-00-----|
D|----------------------------------------------------------------------3~--|

G|-------------------------------------------------------------------------|
D|-33333333-33333333-33333333-33333333-33333333-33333333-33333333-33333333-|
A|-------------------------------------------------------------------------|
D|-------------------------------------------------------------------------|

G|-------------------------------------------------------------------------|
D|-------------------------------------------------------------------------|
A|-------------------------------------------------------------------------| x4
D|-22222222-22222222-33333333-33333333-77777777-77777777-55555555-55555555-|

G|----------------------------------------------------------------------------|
D|----------------------------------------------------------------------------|
A|----------------------------------------------------------------------------|
D|-5~----------22-033-055-077-022-033-055-077-022-033-055-077-022-033-055-077-|

G|--------------------------------------------------------------------------------|
D|--------------------------------------------------------------------------------|
A|--------------------------------------------------------------------------------|
D|-10-10-1010--7-7-77--10-10-1010--7-7-77--10-10-1010--7-7-77--10-10-1010--7-7-77-|
   ^^ ^^ ^^^^          ^^ ^^ ^^^^          ^^ ^^ ^^^^          ^^ ^^ ^^^^
G|------------------------------------------------------------------------------------|
D|------------------------------------------------------------------------------------|
A|------------------------------------------------------------------------------------|
D|-10-10-1010--7-7-77--10-10-1010--7-7-77--10-10-1010--7-7-77--10-10-1010--7-7-77-7-7-|
   ^^ ^^ ^^^^          ^^ ^^ ^^^^          ^^ ^^ ^^^^          ^^ ^^ ^^^^
G|----------------------------------------|
D|----------------------------------------|
A|--------------------------------5~------| x4
D|-9~--2/5~---2~------10~---7~-----------|
                       ^^
G|-----------------------------------------------------------------------|
D|-----------------------------------------------------------------------|
A|-----------------------------------------------------------------------|
D|-101010109799x99x-101010109799x99x-101010109799x99x-101010109799x999-|
   ^^^^^^^^         ^^^^^^^^         ^^^^^^^^         ^^^^^^^^
G|-----------------------------------------------------|
D|-----------------------------------------------------|
A|-----------------------------------------------------|
D|-9909900----9909900----9909900----9909900----9909900-|

  Please rate.
Добавлено: 25.06.2012
Другие материалы по этой песне:
  • Аккорды и текст

Страница создана 13.06.2012
http://primanota.ru/hopesfall/a-man-exits-chords.htm
Привет, Гость.
Предлагаем пройти революционный курс по гитаре.
Подарок от PrimaNota.Ru, забирай!