PrimaNota.ru - самый крупный в мире бесплатный архив песенных текстов, аккордов, табулатур и нот


Hopes Die Last - Tempus Vincit Omnia - таба, видео

Регистрация Запомнить меня
Войти через:  Facebook Google Twitter Vk Yandex Mail.ru

Hopes Die Last - Tempus Vincit Omnia - таба, видео

Печатать
Просмотров: 150
So... here's my tab of Tempus Vincit Omnia, great song made by a great band! Please tell 
if you find any errors and only constructive critcism please this is my first tab ever
i hope you enjoy playing it

*NOTE*
And I felt lazy so I didn't add the ammount of strums during the outro but im pretty 
you'll figure it out it's not that hard

Intro
Gtr 1
0.00 "I'm trying to say"                   0.06  "Like a child freezed"
e|------------------------------------------|-------8-----------------5-------|
B|------------------------------------------|-5h6p5----6p5-6p5-6p5-5h6---(x2)-|
G|---777777777777777777777777777777--5------|---------------------------------|
D|---xxxxxxxxxxxxxxxxxxxxxxxxxxxxxx--5------|---------------------------------|
A|---555555555555555555555555555555--3------|---------------------------------|
D|------------------------------------------|---------------------------------|

Gtr 2
e|----------------------------------------------------------------------------|
B|----------------------------------------------------------------------------|
G|------------------------------------5---------------------------------------|
D|--------0--0-------------00000000---5------5555555555-7777-8888888888-------|
A|--------0--0-------------00000000---3------5555555555-7777-8888888888-------|
D|--------0--0-------------00000000----------5555555555-7777-8888888888-------|
          .  .             ........

Gtr1
0.11 "I'm here, but dont mind"
e|----------------------------------------------------------------------------|
B|--------------7--7----------------------------------------------------------|
G|-------------10-10---------------5------------------------------------------|
D|---0--0---------------00000000---5---------5555555555-7777-8888888888-------|
A|---0--0---------------00000000---3---------5555555555-7777-8888888888-------|
D|---0--0---------------00000000-------------5555555555-7777-8888888888-------|
     .  .               ........

Gtr 2
e|------------------------------------------|-------8-------------------5------|
B|--------------7--7------------------------|--5h6p5----6p5-6p5-6p5-5h6---(x2)-|
G|-------------10-10-----------------5------|----------------------------------|
D|---0--0---------------00000000-----5------|----------------------------------|
A|---0--0---------------00000000-----3------|----------------------------------|
D|---0--0---------------00000000------------|----------------------------------|
     .  .               ........

Verse
Gtr 1&2
0.21      "Clearer"
e|----------------------------------------|------------------------------------|
B|----------------------------------------|------------------------------------|
G|-1010-99-5------------------------------|----77-55-3-------------------------|
D|-x-x--xx-x----88888888888888888888------|----xx-xx-x--88888888888888888888---|
A|-8-8--77-3----88888888888888888888-(2x)-|----55-33-1--88888888888888888888---|
D|--------------88888888888888888888------|-------------88888888888888888888---|
                ....................                    ....................

Gtr 1&2
0.37     "Lets try as we used to do in Paradise"
e|-----------------------------------------------------------------------------|
B|-----------------------------------------------------------------------------|
G|-77-55-3---------------------------------------------------------------------|
D|-xx-xx-x--88888888888885555555555-7~-----------------------------------------|
A|-55-33-1--88888888888885555555555-7~-----------------------------------------|
D|----------88888888888885555555555-7~-----------------------------------------|
            ....................... .

Pre-Chorus
Gtr 1&2  (gradually release palm muting)
0.44
e|-----------------------------------------------------------------------------|
B|-----------------------------------------------------------------------------|
G|--777777777777---------------------------------------------------------------|
D|--777777777777---------------------------------------------------------------|
A|--555555555555---------------------------------------------------------------|
D|-----------------------------------------------------------------------------|
    ........

Chorus
Gtr 1&2
0.46      "Maybe with wrong words"
e|-----------------------------------------------------------------------------|
B|-----------------------------------------------------------------------------|
G|-7777777777777777------------------3333333333333333-5555555555555555---------|
D|-7777777777777777-5555555555555555-3333333333333333-5555555555555555--(x2)---|
A|-5555555555555555-5555555555555555-1111111111111111-3333333333333333---------|
D|------------------5555555555555555-------------------------------------------|

Pre-Verse
Gtr 1
1.06   "Together"
e|--------8-----------------5---------8-----------------5----------------------|
B|--5h6p5---6p5-6p5-6p5-5h6-----5h6p5---6p5-6p5-6p5-5h6------------------------|
G|-----------------------------------------------------------------------------|
D|-----------------------------------------------------------------------------|
A|-----------------------------------------------------------------------------|
D|-----------------------------------------------------------------------------|


Gtr 1
1.17
e|--------8-----------------5--------8-----------------5-----------------------|
B|--5h6p5---6p5-6p5-6p5-5h6----5h6p5---6p5-6p5-6p5-5h6-------------------------|
G|-----------------------------------------------------------------------------|
D|-----------------------------------------------------------------------------|
A|-----------------------------------------------------------------------------|
D|-----------------------------------------------------------------------------|


Gtr 2
e|-----------------------------------------------------------------------------|
B|-----------------------------------------------------------------------------|
G|-----------------------------------------------------------------------------|
D|888888888888888888888888-555555555555555555555555----------------------------|
A|888888888888888888888888-555555555555555555555555----------------------------|
D|888888888888888888888888-555555555555555555555555----------------------------|
  ........................ ........................

Verse
Gtr 1&2
1.26
e|-----------------------------------------------------------------------------|
B|-----------------------------------------------------------------------------|
G|-77-55-3--------------------------77-55-3------------------------------------|
D|-xx-xx-x---88888888888888888888---xx-xx-x-8888888888885555555555-7-----------|
A|-55-33-1---88888888888888888888---55-33-1-8888888888885555555555-7-----------|
D|-----------88888888888888888888-----------8888888888885555555555-7-----------|
             ....................           ...................... .

Pre-Chorus
Gtr 1
1.38
e|-----------------------------------------------------------------------------|
B|------5p6h5p6h5p6h5p6h5------------------------------------------------------|
G|-----------------------------------------------------------------------------|
D|-----------------------------------------------------------------------------|
A|-----------------------------------------------------------------------------|
D|-----------------------------------------------------------------------------|


Gtr 2
e|-----------------------------------------------------------------------------|
B|-----------------------------------------------------------------------------|
G|-----------------------------------------------------------------------------|
D|--888888888888---------------------------------------------------------------|
A|--888888888888---------------------------------------------------------------|
D|--888888888888---------------------------------------------------------------|
    ............

Chorus
Gtr 1&2
1.40
e|-----------------------------------------------------------------------------|
B|-----------------------------------------------------------------------------|
G|-7777777777777777------------------3333333333333333-5555555555555555---------|
D|-7777777777777777-5555555555555555-3333333333333333-5555555555555555---(x3)--|
A|-5555555555555555-5555555555555555-1111111111111111-3333333333333333---------|
D|------------------5555555555555555-------------------------------------------|


Gtr1&2
2.11
e|--------------------------------------------------------------------6-6-5-5-----|
B|----------------------------------------------------------------------------6-6-|
G|-7777777777777777------------------3333333333333333-----7-7-7--5-5--------------|
D|-7777777777777777-5555555555555555-3333333333333333-----------------------------|
A|-5555555555555555-5555555555555555-1111111111111111-----------------------------|
D|------------------5555555555555555----------------------------------------------|

Breakdown
Gtr 1
2.25
e|--------------------------------------------------------------------------------|
B|--------------------------------------------------------------------------------|
G|-9L/10L/5L---(x6)---------------------------------------------------------------|
D|--------------------------------------------------------------------------------|
A|--------------------------------------------------------------------------------|
D|--------------------------------------------------------------------------------|

Gtr 2
e|------------------------------------------------------------------------------------|
B|-----------------------------------------1010101010-1010101010-1010101010-8-8-8-8-8-|
G|------------------------------------------x-x-x-x-x--x-x-x-x-x--x-x-x-x-x-x-x-x-x-x-|
D|--7\3--3/7--7\3--3/7-7/10--10\3--3/7--7\3-7-7-7-7-7--7-7-7-7-7--7-7-7-7-7-5-5-5-5-5-|
A|------------------------------------------------------------------------------------|
D|------------------------------------------------------------------------------------|

Outro
Gtr 1&2
3.28          "It's not easy to be there when it dies in your hands"
e|------------------------------------------------------------------------------------|
B|------------------------------------------------------------------------------------|
G|-12-14-12-14-15-12-14-12-14-12-14-15-12-14-12-14-15-12-14-17------------------------|
D|--x--x--x--x--x--x--x--x--x--x--x--x--x--x--x--x--x--x--x--x------------------------|
A|-10-12-10-12-13-10-12-10-12-10-12-13-10-12-10-12-13-10-12-15------------------------|
D|------------------------------------------------------------------------------------|

Gtr 1&2
4.10     *Instrumental*
e|---------------------------------------------------------|
B|--7------------------------------------------------------|
G|-10--10--14--12--10--14--17--10--14--10--14--12--9--10L--|
D|-----x----x---x---x---x---x---x---x---x---x---x--x---x---|
A|-----8---12--10---8--12--15---8--12---8--12--10--7---8L--|
D|---------------------------------------------------------|


| L  let ring
| /  slide up
| \  slide down
| h  hammer-on
| p  pull-off
| ~  vibrato
| +  harmonic
| x  Mute note
===============================================================================
Добавлено: 02.04.2012
Другие материалы по этой песне:
  • Аккорды и текст

Страница создана 02.04.2012
http://primanota.ru/hopes-die-last/tempus-vincit-omnia-chords.htm
Привет, Гость.
Предлагаем пройти революционный курс по гитаре.
Подарок от PrimaNota.Ru, забирай!