PrimaNota.ru - самый крупный в мире бесплатный архив песенных текстов, аккордов, табулатур и нот


Hopes Die Last - Never Trust The Hazel Eyed - таба, видео

Регистрация Запомнить меня
Войти через:  Facebook Google Twitter Vk Yandex Mail.ru

Hopes Die Last - Never Trust The Hazel Eyed - таба, видео

Печатать
Просмотров: 110
Уроки эстрадного вокала в Санкт-Петербурге
----------------------------------------------------------------------------
                        Never Trust the Hazel Eyed
                              Hopes Die Last
----------------------------------------------------------------------------

Hello. I've got to say, this band is so interesting. They've got so many different 
strengths, like breakdowns and escalating vocals that makes this band unique. I just love the 
breakdown in this song. You just can't stand still at that part. Enjoy!

Username: dkm817 (same on X box live)
Youtube Cover: http://www.youtube.com/watch?v=0jPvRXOqtm0
Email: guitardrums@rockfan.com

Guitar 1 Rhythmic (C# G# C# F# A# D#)
Guitar 2 Lead     (C# G# C# F# A# D#)

Tab Guide...
===================================================================
(end of measures)

===================================================================
===================================================================
(end of parts)

===================================================================
===================================================================
===================================================================
(end of song)

(If there is a “continued” it is because the numbers could not
fit on 1 line.)


Intro 1

Guitar 1
D#-----------------------------------------------------------------|
A#-----------------------------------------------------------------|
F#-----------------------------------------------------------------|
C#-----------------------------------------------------------------|
G#-----------------------------------------------------------------|
C#-2---2---x---2~~~~~~-2---x---2~~~~~~-2---x---2~~~~~~-2---0~~~~~~-|

===================================================================

Guitar 1
D#-----------------------------------------------------|
A#-----------------------------------------------------|
F#---------------------------------------------7---7---|
C#---------------------------------------------5---5---|
G#-----------------------------------------------------|
C#-2---2---x---2~~~~~~-2---0---5-----------------------|

Guitar 2
D#-----------------------------------------------------|
A#-----------------------------------------------------|
F#-------------------------------------7---7-----------|
C#-------------------------------------5---5-----------|
G#-----------------------------------------------------|
C#-----------------------------------------------------|

===================================================================
===================================================================


Verse 1

Guitar 1 & 2 (x3)
D#-----------------------------------------------------------------|
A#-----------------------------------------------------------------|
F#-----------------------------------------------------------------|
C#-----------------------------------------------------------------|
G#-----------------------------------------------------------------|
C#-2---2---x---2~~~~~~-2---x---2~~~~~~-2---x---2~~~~~~-2---0~~~~~~-|

===================================================================

Guitar 1 & 2 continued
D#-----------------------------------------------------------------|
A#-----------------------------------------------------------------|
F#-----------------------------------------------------------------|
C#-----------------------------------------------------------------|
G#---------------------------------------------5---5---5---5---5---|
C#-2---2---x---2~~~~~~-2---0---5~~~~~~-5---0-----------------------|

===================================================================

Guitar 1 & 2
D#-----------------------------------------------------------------|
A#-----------------------------------------------------------------|
F#-----------------------------------------------------------------|
C#-----------------------------------------------------------------|
G#-----------------------------------------------------------------|
C#-2---2---x---2~~~~~~-2---x---2~~~~~~-2---x---2~~~~~~-2---0~~~~~~-|

===================================================================
===================================================================


Pre Chorus 1

Guitar 1 & 2
D#-----------------------------------------------------------------|
A#-----------------------------------------------------------------|
F#-5---5---5---5---5---5---5---5---7---7---7---7-------------------|
C#-5---5---5---5---5---5---5---5---7---7---7---7-------------------|
G#-3---3---3---3---3---3---3---3---5---5---5---5-------------------|
C#-----------------------------------------------------------------|
pm .   .   .   .   .   .   .   .   .   .   .   .

===================================================================
===================================================================


Chorus 1

(x2)

Guitar 1
D#-----------------------------------------------------------------|
A#-----------------------------------------------------------------|
F#-9---9---9---9---9---9---9---9---9---9---9---9---9---9---9---9---|
C#-9---9---9---9---9---9---9---9---9---9---9---9---9---9---9---9---|
G#-7---7---7---7---7---7---7---7---7---7---7---7---7---7---7---7---|
C#-----------------------------------------------------------------|

Guitar 2
D#-----------------------------------------------------------------|
A#-------------------7~~~~~~~~~~~~~~~~~~~~~~~~~~~~~~~~~~~~~~~~~~~~-|
F#-------------0~~~~~~~~~~~~~~~~~~~~~~~~~~~~~~~~~~~~~~~~~~~~~~~~~~-|
C#-------5~~~~~~~~~~~~~~~~~~~~~~~~~~~~~~~~~~~~~~~~~~~~~~~~~~~~~~~~-|
G#-7~~~~~~~~~~~~~~~~~~~~~~~~~~~~~~~~~~~~~~~~~~~~~~~~~~~~~~~~~~~~~~-
C#-----------------------------------------------------------------

===================================================================

Guitar 1
D#-----------------------------------------------------------------|
A#-----------------------------------------------------------------|
F#-5---5---5---5---5---5---5---5---5---5---5---5---5---5---5---5---|
C#-5---5---5---5---5---5---5---5---5---5---5---5---5---5---5---5---|
G#-3---3---3---3---3---3---3---3---3---3---3---3---3---3---3---3---|
C#-----------------------------------------------------------------|

Guitar 2
D#-----------------------------------------------------------------|
A#-------------------5~~~~~~~~~~~~~~~~~~~~~~~~~~~~~~~~~~~~~~~~~~~~-|
F#-------------0~~~~~~~~~~~~~~~~~~~~~~~~~~~~~~~~~~~~~~~~~~~~~~~~~~-|
C#-------5~~~~~~~~~~~~~~~~~~~~~~~~~~~~~~~~~~~~~~~~~~~~~~~~~~~~~~~~-|
G#-3~~~~~~~~~~~~~~~~~~~~~~~~~~~~~~~~~~~~~~~~~~~~~~~~~~~~~~~~~~~~~~-
C#-----------------------------------------------------------------

===================================================================

Guitar 1
D#-----------------------------------------------------------------|
A#-----------------------------------------------------------------|
F#-9---9---9---9---9---9---9---9---9---9---9---9---9---9---9---9---|
C#-9---9---9---9---9---9---9---9---9---9---9---9---9---9---9---9---|
G#-7---7---7---7---7---7---7---7---7---7---7---7---7---7---7---7---|
C#-----------------------------------------------------------------|

Guitar 2
D#-----------------------------------------------------------------|
A#-------------------7~~~~~~~~~~~~~~~~~~~~~~~~~~~~~~~~~~~~~~~~~~~~-|
F#-------------0~~~~~~~~~~~~~~~~~~~~~~~~~~~~~~~~~~~~~~~~~~~~~~~~~~-|
C#-------5~~~~~~~~~~~~~~~~~~~~~~~~~~~~~~~~~~~~~~~~~~~~~~~~~~~~~~~~-|
G#-7~~~~~~~~~~~~~~~~~~~~~~~~~~~~~~~~~~~~~~~~~~~~~~~~~~~~~~~~~~~~~~-
C#-----------------------------------------------------------------

===================================================================

Guitar 1
D#-----------------------------------------------------------------|
A#-----------------------------------------------------------------|
F#-7---7---7---7---7---7---7---7---7---7---7---7---7---7---7---7---|
C#-7---7---7---7---7---7---7---7---7---7---7---7---7---7---7---7---|
G#-5---5---5---5---5---5---5---5---5---5---5---5---5---5---5---5---|
C#-----------------------------------------------------------------|

Guitar 2
D#-----------------------------------------------------------------|
A#-------------------7~~~~~~~~~~~~~~~~~~~~~~~~~~~~~~~~~~~~~~~~~~~~-|
F#-------------0~~~~~~~~~~~~~~~~~~~~~~~~~~~~~~~~~~~~~~~~~~~~~~~~~~-|
C#-------7~~~~~~~~~~~~~~~~~~~~~~~~~~~~~~~~~~~~~~~~~~~~~~~~~~~~~~~~-|
G#-5~~~~~~~~~~~~~~~~~~~~~~~~~~~~~~~~~~~~~~~~~~~~~~~~~~~~~~~~~~~~~~-
C#-----------------------------------------------------------------

===================================================================
===================================================================


Break Off

Guitar 1
D#-----------------------------------------------------------------|
A#-----------------------------------------------------------------|
F#-----------------------------------------------------------------|
C#-7---7---7---7---7---7---7---7---7---7---7---7---7---7---7---7---|
G#-7---7---7---7---7---7---7---7---7---7---7---7---7---7---7---7---|
C#-7---7---7---7---7---7---7---7---7---7---7---7---7---7---7---7---|

Guitar 2
D#-----------------------------------------------------------------|
A#-8--8--8--8--8--8--8--8--8--8--8--10-10-10-10-10-10-10-10-10-10--|
F#-----------------------------------------------------------------|
C#-----------------------------------------------------------------|
G#-----------------------------------------------------------------|
C#-----------------------------------------------------------------|

===================================================================

Guitar 1
D#-----------------------------------------------------------------|
A#-----------------------------------------------------------------|
F#-----------------------------------------------------------------|
C#-5---5---5---5---5---5---5---5---0---0---0---0---12\~~~~~~~~~~~~-|
G#-5---5---5---5---5---5---5---5---0---0---0---0---12\~~~~~~~~~~~~-|
C#-5---5---5---5---5---5---5---5---0---0---0---0---12\~~~~~~~~~~~~-|

Guitar 2
D#-----------------------------------------------------------------|
A#-12-12-12-12-12-12-12-12-12-12-12-15-15-15-15-15-----------------|
F#-----------------------------------------------------------------|
C#-------------------------------------------------12\~~~~~~~~~~~~-|
G#-------------------------------------------------12\~~~~~~~~~~~~-|
C#-------------------------------------------------12\~~~~~~~~~~~~-|

===================================================================
===================================================================


Verse 2

Guitar 1 & 2 (x3)
D#-----------------------------------------------------------------|
A#-----------------------------------------------------------------|
F#-----------------------------------------------------------------|
C#-----------------------------------------------------------------|
G#-----------------------------------------------------------------|
C#-2---2---x---2~~~~~~-2---x---2~~~~~~-2---x---2~~~~~~-2---0~~~~~~-|

===================================================================

Guitar 1 & 2 continued
D#-----------------------------------------------------------------|
A#-----------------------------------------------------------------|
F#-----------------------------------------------------------------|
C#-----------------------------------------------------------------|
G#---------------------------------------------5---5---5---5---5---|
C#-2---2---x---2~~~~~~-2---0---5~~~~~~-5---0-----------------------|

===================================================================

Guitar 1 & 2
D#-----------------------------------------------------------------|
A#-----------------------------------------------------------------|
F#-----------------------------------------------------------------|
C#-----------------------------------------------------------------|
G#-----------------------------------------------------------------|
C#-2---2---x---2~~~~~~-2---x---2~~~~~~-2---x---2~~~~~~-2---0~~~~~~-|

===================================================================
===================================================================


Pre Chorus 2

Guitar 1 & 2
D#-----------------------------------------------------------------|
A#-----------------------------------------------------------------|
F#-5---5---5---5---5---5---5---5---7---7---7---7---7---7-----------|
C#-5---5---5---5---5---5---5---5---7---7---7---7---7---7-----------|
G#-3---3---3---3---3---3---3---3---5---5---5---5---5---5-----------|
C#-----------------------------------------------------------------|
pm .   .   .   .   .   .   .   .   .   .   .   .   .   .

===================================================================
===================================================================


Chorus 1

(x2)

Guitar 1
D#-----------------------------------------------------------------|
A#-----------------------------------------------------------------|
F#-9---9---9---9---9---9---9---9---9---9---9---9---9---9---9---9---|
C#-9---9---9---9---9---9---9---9---9---9---9---9---9---9---9---9---|
G#-7---7---7---7---7---7---7---7---7---7---7---7---7---7---7---7---|
C#-----------------------------------------------------------------|

Guitar 2
D#-----------------------------------------------------------------|
A#-------------------7~~~~~~~~~~~~~~~~~~~~~~~~~~~~~~~~~~~~~~~~~~~~-|
F#-------------0~~~~~~~~~~~~~~~~~~~~~~~~~~~~~~~~~~~~~~~~~~~~~~~~~~-|
C#-------5~~~~~~~~~~~~~~~~~~~~~~~~~~~~~~~~~~~~~~~~~~~~~~~~~~~~~~~~-|
G#-7~~~~~~~~~~~~~~~~~~~~~~~~~~~~~~~~~~~~~~~~~~~~~~~~~~~~~~~~~~~~~~-
C#-----------------------------------------------------------------

===================================================================

Guitar 1
D#-----------------------------------------------------------------|
A#-----------------------------------------------------------------|
F#-5---5---5---5---5---5---5---5---5---5---5---5---5---5---5---5---|
C#-5---5---5---5---5---5---5---5---5---5---5---5---5---5---5---5---|
G#-3---3---3---3---3---3---3---3---3---3---3---3---3---3---3---3---|
C#-----------------------------------------------------------------|

Guitar 2
D#-----------------------------------------------------------------|
A#-------------------5~~~~~~~~~~~~~~~~~~~~~~~~~~~~~~~~~~~~~~~~~~~~-|
F#-------------0~~~~~~~~~~~~~~~~~~~~~~~~~~~~~~~~~~~~~~~~~~~~~~~~~~-|
C#-------5~~~~~~~~~~~~~~~~~~~~~~~~~~~~~~~~~~~~~~~~~~~~~~~~~~~~~~~~-|
G#-3~~~~~~~~~~~~~~~~~~~~~~~~~~~~~~~~~~~~~~~~~~~~~~~~~~~~~~~~~~~~~~-
C#-----------------------------------------------------------------

===================================================================

Guitar 1
D#-----------------------------------------------------------------|
A#-----------------------------------------------------------------|
F#-9---9---9---9---9---9---9---9---9---9---9---9---9---9---9---9---|
C#-9---9---9---9---9---9---9---9---9---9---9---9---9---9---9---9---|
G#-7---7---7---7---7---7---7---7---7---7---7---7---7---7---7---7---|
C#-----------------------------------------------------------------|

Guitar 2
D#-----------------------------------------------------------------|
A#-------------------7~~~~~~~~~~~~~~~~~~~~~~~~~~~~~~~~~~~~~~~~~~~~-|
F#-------------0~~~~~~~~~~~~~~~~~~~~~~~~~~~~~~~~~~~~~~~~~~~~~~~~~~-|
C#-------5~~~~~~~~~~~~~~~~~~~~~~~~~~~~~~~~~~~~~~~~~~~~~~~~~~~~~~~~-|
G#-7~~~~~~~~~~~~~~~~~~~~~~~~~~~~~~~~~~~~~~~~~~~~~~~~~~~~~~~~~~~~~~-
C#-----------------------------------------------------------------

===================================================================

Guitar 1
D#-----------------------------------------------------------------|
A#-----------------------------------------------------------------|
F#-7---7---7---7---7---7---7---7---7---7---7---7---7---7---7---7---|
C#-7---7---7---7---7---7---7---7---7---7---7---7---7---7---7---7---|
G#-5---5---5---5---5---5---5---5---5---5---5---5---5---5---5---5---|
C#-----------------------------------------------------------------|

Guitar 2
D#-----------------------------------------------------------------|
A#-------------------7~~~~~~~~~~~~~~~~~~~~~~~~~~~~~~~~~~~~~~~~~~~~-|
F#-------------0~~~~~~~~~~~~~~~~~~~~~~~~~~~~~~~~~~~~~~~~~~~~~~~~~~-|
C#-------7~~~~~~~~~~~~~~~~~~~~~~~~~~~~~~~~~~~~~~~~~~~~~~~~~~~~~~~~-|
G#-5~~~~~~~~~~~~~~~~~~~~~~~~~~~~~~~~~~~~~~~~~~~~~~~~~~~~~~~~~~~~~~-
C#-----------------------------------------------------------------

===================================================================
===================================================================

Break Off

Guitar 1
D#-----------------------------------------------------------------|
A#-----------------------------------------------------------------|
F#-----------------------------------------------------------------|
C#-7---7---7---7---7---7---7---7---7---7---7---7---7---7---7---7---|
G#-7---7---7---7---7---7---7---7---7---7---7---7---7---7---7---7---|
C#-7---7---7---7---7---7---7---7---7---7---7---7---7---7---7---7---|

Guitar 2
D#-----------------------------------------------------------------|
A#-8--8--8--8--8--8--8--8--8--8--8--10-10-10-10-10-10-10-10-10-10--|
F#-----------------------------------------------------------------|
C#-----------------------------------------------------------------|
G#-----------------------------------------------------------------|
C#-----------------------------------------------------------------|

===================================================================

Guitar 1
D#-----------------------------------------------------------------|
A#-----------------------------------------------------------------|
F#-----------------------------------------------------------------|
C#-5---5---5---5---5---5---5---5---0---0---0---0---0---0---0---0---|
G#-5---5---5---5---5---5---5---5---0---0---0---0---0---0---0---0---|
C#-5---5---5---5---5---5---5---5---0---0---0---0---0---0---0---0---|

Guitar 2
D#-----------------------------------------------------------------|
A#-12-12-12-12-12-12-12-12-12-12-12-15-15-15-15-15-15-15-15-15-15--|
F#-----------------------------------------------------------------|
C#-----------------------------------------------------------------|
G#-----------------------------------------------------------------|
C#-----------------------------------------------------------------|

===================================================================
===================================================================


Bridge 1

Guitar 1
D#-----------------------------------------------------------------|
A#-----------------------------------------------------------------|
F#-----------------------------------------------------------------|
C#-2~~~~-2~~~~-2~~~~-2~~~~~~~~~~~~~~~~~~~~~~~~~~~~~~~~~~~~~~~~~~~~-|
G#-2~~~~-2~~~~-2~~~~-2~~~~~~~~~~~~~~~~~~~~~~~~~~~~~~~~~~~~~~~~~~~~-|
C#-2~~~~-2~~~~-2~~~~-2~~~~~~~~~~~~~~~~~~~~~~~~~~~~~~~~~~~~~~~~~~~~-|

Guitar 2
D#-----------------------------------------------------------------|
A#-------8~~~~-7~~~~-10-10-10-10-10-10-10-10-10-10-10-10-10-10-10--|
F#-9~~~~-----------------------------------------------------------|
C#-----------------------------------------------------------------|
G#-----------------------------------------------------------------|
C#-----------------------------------------------------------------|

===================================================================

Guitar 1
D#-----------------------------------------------------------------|
A#-----------------------------------------------------------------|
F#-----------------------------------------------------------------|
C#-2~~~~-2~~~~-2~~~~-2~~~~~~~~~~~~~~~~~~~~~~~~~~~~~~~~~~~~~~~~~~~~-|
G#-2~~~~-2~~~~-2~~~~-2~~~~~~~~~~~~~~~~~~~~~~~~~~~~~~~~~~~~~~~~~~~~-|
C#-2~~~~-2~~~~-2~~~~-2~~~~~~~~~~~~~~~~~~~~~~~~~~~~~~~~~~~~~~~~~~~~-|

Guitar 2
D#-------------------7--7--7--7--7--7--7--7--7--7--7--7--7--7--7---|
A#-------8~~~~-7~~~~-----------------------------------------------|
F#-9~~~~-----------------------------------------------------------|
C#-----------------------------------------------------------------|
G#-----------------------------------------------------------------|
C#-----------------------------------------------------------------|

===================================================================

Guitar 1
D#-----------------------------------------------------------------|
A#-----------------------------------------------------------------|
F#-----------------------------------------------------------------|
C#-7---7---7---7---7---7---7---7---7---7---7---7---7---7---7---7---|
G#-7---7---7---7---7---7---7---7---7---7---7---7---7---7---7---7---|
C#-7---7---7---7---7---7---7---7---7---7---7---7---7---7---7---7---|

Guitar 2
D#-----------------------------------------------------------------|
A#-8--8--8--8--8--8--8--8--8--8--8--10-10-10-10-10-10-10-10-10-10--|
F#-----------------------------------------------------------------|
C#-----------------------------------------------------------------|
G#-----------------------------------------------------------------|
C#-----------------------------------------------------------------|

===================================================================

Guitar 1
D#-----------------------------------------------------------------|
A#-----------------------------------------------------------------|
F#-----------------------------------------------------------------|
C#-5---5---5---5---5---5---5---5---0---0---0---0---0---0---0---0---|
G#-5---5---5---5---5---5---5---5---0---0---0---0---0---0---0---0---|
C#-5---5---5---5---5---5---5---5---0---0---0---0---0---0---0---0---|

Guitar 2
D#-----------------------------------------------------------------|
A#-12-12-12-12-12-12-12-12-12-12-12-15-15-15-15-15-15-15-15-15-15--|
F#-----------------------------------------------------------------|
C#-----------------------------------------------------------------|
G#-----------------------------------------------------------------|
C#-----------------------------------------------------------------|

===================================================================

Guitar 1
D#-----------------------------------------------------------------|
A#-----------------------------------------------------------------|
F#-----------------------------------------------------------------|
C#-2~~~~-2~~~~-2~~~~-2~~~~~~~~~~~~~~~~~~~~~~~~~~~~~~~~~~~~~~~~~~~~-|
G#-2~~~~-2~~~~-2~~~~-2~~~~~~~~~~~~~~~~~~~~~~~~~~~~~~~~~~~~~~~~~~~~-|
C#-2~~~~-2~~~~-2~~~~-2~~~~~~~~~~~~~~~~~~~~~~~~~~~~~~~~~~~~~~~~~~~~-|

Guitar 2
D#-----------------------------------------------------------------|
A#-------8~~~~-7~~~~-10-10-10-10-10-10-10-10-10-10-10-10-10-10-10--|
F#-9~~~~-----------------------------------------------------------|
C#-----------------------------------------------------------------|
G#-----------------------------------------------------------------|
C#-----------------------------------------------------------------|

===================================================================

Guitar 1
D#-----------------------------------------------------------------|
A#-----------------------------------------------------------------|
F#-----------------------------------------------------------------|
C#-2~~~~-2~~~~-2~~~~-2~~~~~~~~~~~~~~~~~~~~~~~~~~~~-x---x---x---x---|
G#-2~~~~-2~~~~-2~~~~-2~~~~~~~~~~~~~~~~~~~~~~~~~~~~-x---x---x---x---|
C#-2~~~~-2~~~~-2~~~~-2~~~~~~~~~~~~~~~~~~~~~~~~~~~~-x---x---x---x---|

Guitar 2
D#-------------------7--7--7--7--7--7--7--7--7--7--7--7--7--7--7---|
A#-------8~~~~-7~~~~-----------------------------------------------|
F#-9~~~~-----------------------------------------------------------|
C#-----------------------------------------------------------------|
G#-----------------------------------------------------------------|
C#-----------------------------------------------------------------|

===================================================================

Guitar 1
D#-----------------------------------------------------------------|
A#-----------------------------------------------------------------|
F#-----------------------------------------------------------------|
C#-2~~~~-2~~~~-2~~~~-2~~~~~~~~~~~~~~~~~~~~~~~~~~~~~~~~~~~~~~~~~~~~-|
G#-2~~~~-2~~~~-2~~~~-2~~~~~~~~~~~~~~~~~~~~~~~~~~~~~~~~~~~~~~~~~~~~-|
C#-2~~~~-2~~~~-2~~~~-2~~~~~~~~~~~~~~~~~~~~~~~~~~~~~~~~~~~~~~~~~~~~-|

Guitar 2
D#-----------------------------------------------------------------|
A#-------8~~~~-7~~~~-10-10-10-10-10-10-10-10-10-10-10-10-10-10-10--|
F#-9~~~~-----------------------------------------------------------|
C#-----------------------------------------------------------------|
G#-----------------------------------------------------------------|
C#-----------------------------------------------------------------|

===================================================================

Guitar 1
D#-----------------------------------------------------------------|
A#-----------------------------------------------------------------|
F#-----------------------------------------------------------------|
C#-2~~~~-2~~~~-2~~~~-2~~~~~~~~~~~~~~~~~~~~~~~~~~-0--0--0--0--0--0--|
G#-2~~~~-2~~~~-2~~~~-2~~~~~~~~~~~~~~~~~~~~~~~~~~-0--0--0--0--0--0--|
C#-2~~~~-2~~~~-2~~~~-2~~~~~~~~~~~~~~~~~~~~~~~~~~-0--0--0--0--0--0--|
pm . . . . . .

Guitar 2
D#-----------------------------------------------------------------|
A#-------8~~~~-7~~~~-----------------------------------------------|
F#-9~~~~-------------7--7--7--7--7--7--7--7--7--7--7--7--7--7--7---|
C#-----------------------------------------------------------------|
G#-----------------------------------------------------------------|
C#-----------------------------------------------------------------|

===================================================================
===================================================================


Bridge 2

Guitar 1
D#-----------------------------------------------------------------|
A#-----------------------------------------------------------------|
F#-----------------------------------------------------------------|
C#-----------------------------------------------------------------|
G#-----------------------------------------------------------------|
C#-2~~~~-2~~~~-2-------------------------2-2-2-0---2-2~~-2~~-2-0---|
pm                                       . . .

Guitar 2
D#-----------------------------------------------------------------|
A#-----------------------------------------------------------------|
F#-9~~~~~~~~~~~~~~~~~~~~~~~~~~~~~~~~~~~~~~~~~~~~~~~~~~~~~~~~~~~~~~-
C#-----------------------------------------------------------------|
G#-----------------------------------------------------------------|
C#-----------------------------------------------------------------|

===================================================================

Guitar 1
D#-----------------------------------------------------------------|
A#-----------------------------------------------------------------|
F#-----------------------------------------------------------------|
C#-----------------------------------------------------------------|
G#-----------------------------------------------------------------|
C#-2~~~~-2~~~~-2-------------------------2-2-2-0---2-2~~-2~~-2-0---|
pm                                       . . .

===================================================================

Guitar 1 & 2 (x2)
D#-----------------------------------------------------------------|
A#-----------------------------------------------------------------|
F#-----------------------------------------------------------------|
C#-----------------------------------------------------------------|
G#-----------------------------------------------------------------|
C#-2~~~~-2~~~~-0~~-2~~~~-2~~~~-0~~-2~~~~-2~~~~-0~~-2~~~~-0~~~~-0~~-|

===================================================================

Guitar 1 & 2
D#-----------------------------------------------------------------|
A#-----------------------------------------------------------------|
F#-----------------------------------------------------------------|
C#-----------------------------------------------------------------|
G#-----------------------------------------------------------------|
C#-2-0-0-2~~-2-0-2-0-0-2~~-2-0-2-0-0-2~~-2-0-2-0-0-2~~-2-0~~~~~~~~-|
pm . . .       . . . .       . . . .       . . . .

===================================================================

Guitar 1
D#-----------------------------------------------------------------|
A#-----------------------------------------------------------------|
F#-----------------------------------------------------------------|
C#-----------------------------------------------------------------|
G#-----------------------------------------------------------------|
C#-2-0-0-2-0-0-2-0-0-2-0-0-2-0-0-----------------------------------|

Guitar 2
D#-----------------------------------------------------------------|
A#---------------------------------8--8--8--8--8--8--8--8--8-------|
F#---------------------------------11b11b11b11b11b11b11b11b11b-----|
C#-----------------------------------------------------------------|
G#-----------------------------------------------------------------|
C#-2-0-0-2-0-0-2-0-0-2-0-0-2-0-0-----------------------------------|

===================================================================
===================================================================


Breakdown 1

(x4)

Guitar 1 & 2
D#-----------------------------------------------------------------|
A#-----------------------------------------------------------------|
F#-----------------------------------------------------------------|
C#-2-----2-----2---2-----2-----2-------2-2-------------------------|
G#-2-----2-----2---2-----2-----2-------2-2-------------------------|
C#-2-----2-----2---2-----2-----2-------2-2-2p0---2-2~~~-2~~~-2-0---|
Pm .     .     .   .     .     .       . .

===================================================================
===================================================================


Breakdown 2

Guitar 1
D#-----------------------------------------------------------------|
A#-----------------------------------------------------------------|
F#-----------------------------------------------------------------|
C#-2-----2-----2---2-----2-----2~~~~~~-2-2-------------------------|
G#-2-----2-----2---2-----2-----2~~~~~~-2-2-------------------------|
C#-2-----2-----2---2-----2-----2~~~~~~-2-2-2p0---2-2~~~-2~~~-2-0---|
Pm .     .     .   .     .     .       . .

Guitar 2
D#-----------------------------------------------------------------|
A#-----------------8~~~~~~~~~~~~~~~~~~~~~~~~~~~~~~~~~~~~~~~~~~~~~~-|
F#-9~~~~~~~~~~~~~~~~~~~~~~~~~~~~~~~~~~~~~~~~~~~~~~~~~~~~~~~~~~~~~~-
C#-----------------------------------------------------------------|
G#-----------------------------------------------------------------|
C#-----------------------------------------------------------------|

===================================================================

Guitar 1
D#-----------------------------------------------------------------|
A#-----------------------------------------------------------------|
F#-----------------------------------------------------------------|
C#-2-----2-----2---2-----2-----2~~~~~~-2-2-------------------------|
G#-2-----2-----2---2-----2-----2~~~~~~-2-2-------------------------|
C#-2-----2-----2---2-----2-----2~~~~~~-2-2-2p0---2-2~~~-2~~~-2-0---|
Pm .     .     .   .     .     .       . .

Guitar 2
D#-----------------7~~~~~~~~~~~~~~~~~~~~~~~~~~~~~~~~~~~~~~~~~~~~~~-|
A#-----------------8~~~~~~~~~~~~~~~~~~~~~~~~~~~~~~~~~~~~~~~~~~~~~~-|
F#-9~~~~~~~~~~~~~~~~~~~~~~~~~~~~~~~~~~~~~~~~~~~~~~~~~~~~~~~~~~~~~~-
C#-----------------------------------------------------------------|
G#-----------------------------------------------------------------|
C#-----------------------------------------------------------------|

===================================================================

Guitar 1
D#-----------------------------------------------------------------|
A#-----------------------------------------------------------------|
F#-----------------------------------------------------------------|
C#-2-----2-----2---2-----2-----2~~~~~~-2-2-------------------------|
G#-2-----2-----2---2-----2-----2~~~~~~-2-2-------------------------|
C#-2-----2-----2---2-----2-----2~~~~~~-2-2-2p0---2-2~~~-2~~~-2-0---|
Pm .     .     .   .     .     .       . .

Guitar 2
D#-----------------------------------------------------------------|
A#-----------------------------------------------------------------|
F#-----------------7~~~~~~~~~~~~~~~~~~~~~~~~~~~~~~~~~~~~~~~~~~~~~~-|
C#-10~~~~~~~~~~~~~~~~~~~~~~~~~~~~~~~~~~~~~~~~~~~~~~~~~~~~~~~~~~~~~-
G#-----------------------------------------------------------------|
C#-----------------------------------------------------------------|

===================================================================

Guitar 1
D#-----------------------------------------------------------------|
A#-----------------------------------------------------------------|
F#-----------------------------------------------------------------|
C#-2-----2-----2---2-----2-----2~~~~~~-2-2-------------------------|
G#-2-----2-----2---2-----2-----2~~~~~~-2-2-------------------------|
C#-2-----2-----2---2-----2-----2~~~~~~-2-2-2p0---2-2~~~-2~~~-2-0---|
Pm .     .     .   .     .     .       . .

Guitar 2
D#-----------------------------------------------------------------|
A#-----------------8~~~~~~~~~~~~~~~~~~~~~~~~~~~~~~~~~~~~~~~~~~~~~~-|
F#-----------------7~~~~~~~~~~~~~~~~~~~~~~~~~~~~~~~~~~~~~~~~~~~~~~-|
C#-10~~~~~~~~~~~~~~~~~~~~~~~~~~~~~~~~~~~~~~~~~~~~~~~~~~~~~~~~~~~~~-
G#-----------------------------------------------------------------|
C#-----------------------------------------------------------------|

===================================================================
===================================================================


Interlude 1

Guitar 1
D#-----------------------------------------------------------------|
A#-----------------------------------------------------------------|
F#-5~~~~-5~~~~-5~~-5~~~~-5~~~~-5~~-7~~~~-7~~~~-7~~-7~~~~-7~~~~-7~~-|
C#-5~~~~-5~~~~-5~~-5~~~~-5~~~~-5~~-7~~~~-7~~~~-7~~-7~~~~-7~~~~-7~~-|
G#-3~~~~-3~~~~-3~~-3~~~~-3~~~~-3~~-5~~~~-5~~~~-5~~-5~~~~-5~~~~-5~~-|
C#-----------------------------------------------------------------|

Guitar 2
D#-7~~~~~~~~~~-7~~-7~~~~~~~~~~~~~~-5~~~~~~~~~~-5~~-5~~~~~~~~~~~~~~-|
A#-------8~~~~~~~~~~~~~~-8~~~~~8~~-------8~~~~~~~~~~~~~~-8~~~~~8~~-|
F#-----------------------------------------------------------------|
C#-----------------------------------------------------------------|
G#-----------------------------------------------------------------|
C#-----------------------------------------------------------------|

===================================================================

Guitar 1
D#-----------------------------------------------------------------|
A#-----------------------------------------------------------------|
F#---------------------------------9~~~~-9~~~~-9~~-7~~~~-7~~~~-7~~-|
C#-9~~~~-9~~~~-9~~-9~~~~-9~~~~-9~~-9~~~~-9~~~~-9~~-7~~~~-7~~~~-7~~-|
G#-9~~~~-9~~~~-9~~-9~~~~-9~~~~-9~~-7~~~~-7~~~~-7~~-5~~~~-5~~~~-5~~-|
C#-9~~~~-9~~~~-9~~-9~~~~-9~~~~-9~~---------------------------------|

Guitar 2
D#-7~~~~~~~~~~-7~~-7~~~~~~~~~~~~~~-----------------7~~~~-----------|
A#-------8~~~~~~~~~~~~~~-8~~~~~8~~-7~~-8~~~~~~-5~~-------7~~~~-8~~-|
F#-----------------------------------------------------------------|
C#-----------------------------------------------------------------|
G#-----------------------------------------------------------------|
C#-----------------------------------------------------------------|

Guitar 1
D#-----------------------------------------------------------------|
A#-----------------------------------------------------------------|
F#-5~~~~-5~~~~-5~~-5~~~~-5~~~~-5~~-7~~~~-7~~~~-7~~-7~~~~-7~~~~-7~~-|
C#-5~~~~-5~~~~-5~~-5~~~~-5~~~~-5~~-7~~~~-7~~~~-7~~-7~~~~-7~~~~-7~~-|
G#-3~~~~-3~~~~-3~~-3~~~~-3~~~~-3~~-5~~~~-5~~~~-5~~-5~~~~-5~~~~-5~~-|
C#-----------------------------------------------------------------|

Guitar 2
D#-7~~~~~~~~~~-7~~-7~~~~~~~~~~~~~~-5~~~~~~~~~~-5~~-5~~~~~~~~~~~~~~-|
A#-------8~~~~~~~~~~~~~~-8~~~~~8~~-------8~~~~~~~~~~~~~~-8~~~~~8~~-|
F#-----------------------------------------------------------------|
C#-----------------------------------------------------------------|
G#-----------------------------------------------------------------|
C#-----------------------------------------------------------------|

===================================================================

Guitar 1
D#-----------------------------------------------------------------|
A#-----------------------------------------------------------------|
F#-----------------------------------------------------------------|
C#-7~~~~-7~~~~-7~~-7~~~~-7~~~~-7~~-9---9---9---9---9---9---9---9---|
G#-7~~~~-7~~~~-7~~-7~~~~-7~~~~-7~~-9---9---9---9---9---9---9---9---|
C#-7~~~~-7~~~~-7~~-7~~~~-7~~~~-7~~-9---9---9---9---9---9---9---9---|

Guitar 2
D#-7~~~~~~~~~~-7~~-7~~~~~~~~~~~~~~-----------------7~~~~-----------|
A#-------8~~~~~~~~~~~~~~-8~~~~~8~~-7~~-8~~~~~~-5~~-------7~~~~-8~~-|
F#-----------------------------------------------------------------|
C#-----------------------------------------------------------------|
G#-----------------------------------------------------------------|
C#-----------------------------------------------------------------|

===================================================================
===================================================================


Interlude 2

Guitar 1
D#-----------------------------------------------------------------|
A#-----------------------------------------------------------------|
F#-----------------------------------------------------------------|
C#-5~~~~~~~~~~~~~~~~~~~~~~~~~~~~~~-7~~~~~~~~~~~~~~~~~~~~~~~~~~~~~~-
G#-3~~~~~~~~~~~~~~~~~~~~~~~~~~~~~~-5~~~~~~~~~~~~~~~~~~~~~~~~~~~~~~-
C#-2~~~~~~~~~~~~~~~~~~~~~~~~~~~~~~-4~~~~~~~~~~~~~~~~~~~~~~~~~~~~~~-

Guitar 2
D#-----------------------------------------------------------------|
A#-8~~~~-----------8~~~~-----------5~~~~-------5~~-7~~~~-------7~~-|
F#-------4~~~~-4~~-------4~~~~-4~~-------4~~~~-----------4~~~~-----|
C#-----------------------------------------------------------------|
G#-----------------------------------------------------------------|
C#-----------------------------------------------------------------|

===================================================================

Guitar 1
D#-----------------------------------------------------------------|
A#-----------------------------------------------------------------|
F#-----------------------------------------------------------------|
C#-2~~~~~~~~~~~~~~~~~~~~~~~~~~~~~~~~~~-2-2-------------------------|
G#-2~~~~~~~~~~~~~~~~~~~~~~~~~~~~~~~~~~-2-2-------------------------|
C#-2~~~~~~~~~~~~~~~~~~~~~~~~~~~~~~~~~~-2-2-2p0---2-2~~~-2~~~-2-0---|
Pm                                     . .

Guitar 2
D#-----------------------------------------------------------------|
A#-8~~~~-----------8~~~~-----------5~~~~-------5~~-7~~~~-------7~~-|
F#-------4~~~~-4~~-------4~~~~-4~~-------4~~~~-----------4~~~~-----|
C#-----------------------------------------------------------------|
G#-----------------------------------------------------------------|
C#-----------------------------------------------------------------|

===================================================================

Guitar 1
D#-----------------------------------------------------------------|
A#-----------------------------------------------------------------|
F#-----------------------------------------------------------------|
C#-5~~~~~~~~~~~~~~~~~~~~~~~~~~~~~~-7~~~~~~~~~~~~~~~~~~~~~~~~~~~~~~-
G#-3~~~~~~~~~~~~~~~~~~~~~~~~~~~~~~-5~~~~~~~~~~~~~~~~~~~~~~~~~~~~~~-
C#-2~~~~~~~~~~~~~~~~~~~~~~~~~~~~~~-4~~~~~~~~~~~~~~~~~~~~~~~~~~~~~~-

Guitar 2
D#-----------------------------------------------------------------|
A#-8~~~~-----------8~~~~-----------5~~~~-------5~~-7~~~~-------7~~-|
F#-------4~~~~-4~~-------4~~~~-4~~-------4~~~~-----------4~~~~-----|
C#-----------------------------------------------------------------|
G#-----------------------------------------------------------------|
C#-----------------------------------------------------------------|

===================================================================
===================================================================


Chorus 2

Guitar 1
D#-----------------------------------------------------------------|
A#-----------------------------------------------------------------|
F#-----------------------------------------------------------------|
C#-----------------------------------------------------------------|
G#-----------------------------------------------------------------|
C#-----------------------------------------------------------------|

Guitar 2
D#-----------------------------------------------------------------|
A#-------------------7~~~~~~~~~~~~~~~~~~~~~~~~~~~~~~~~~~~~~~~~~~~~-|
F#-------------0~~~~~~~~~~~~~~~~~~~~~~~~~~~~~~~~~~~~~~~~~~~~~~~~~~-|
C#-------5~~~~~~~~~~~~~~~~~~~~~~~~~~~~~~~~~~~~~~~~~~~~~~~~~~~~~~~~-|
G#-7~~~~~~~~~~~~~~~~~~~~~~~~~~~~~~~~~~~~~~~~~~~~~~~~~~~~~~~~~~~~~~-
C#-----------------------------------------------------------------

===================================================================

Guitar 1
D#-----------------------------------------------------------------|
A#-----------------------------------------------------------------|
F#-5---5---5---5---5---5---5---5---5---5---5---5---5---5---5---5---|
C#-5---5---5---5---5---5---5---5---5---5---5---5---5---5---5---5---|
G#-3---3---3---3---3---3---3---3---3---3---3---3---3---3---3---3---|
C#-----------------------------------------------------------------|

Guitar 2
D#-----------------------------------------------------------------|
A#-------------------5~~~~~~~~~~~~~~~~~~~~~~~~~~~~~~~~~~~~~~~~~~~~-|
F#-------------0~~~~~~~~~~~~~~~~~~~~~~~~~~~~~~~~~~~~~~~~~~~~~~~~~~-|
C#-------5~~~~~~~~~~~~~~~~~~~~~~~~~~~~~~~~~~~~~~~~~~~~~~~~~~~~~~~~-|
G#-3~~~~~~~~~~~~~~~~~~~~~~~~~~~~~~~~~~~~~~~~~~~~~~~~~~~~~~~~~~~~~~-
C#-----------------------------------------------------------------

===================================================================

Guitar 1
D#-----------------------------------------------------------------|
A#-----------------------------------------------------------------|
F#-9---9---9---9---9---9---9---9---9---9---9---9---9---9---9---9---|
C#-9---9---9---9---9---9---9---9---9---9---9---9---9---9---9---9---|
G#-7---7---7---7---7---7---7---7---7---7---7---7---7---7---7---7---|
C#-----------------------------------------------------------------|

Guitar 2
D#-----------------------------------------------------------------|
A#-------------------7~~~~~~~~~~~~~~~~~~~~~~~~~~~~~~~~~~~~~~~~~~~~-|
F#-------------0~~~~~~~~~~~~~~~~~~~~~~~~~~~~~~~~~~~~~~~~~~~~~~~~~~-|
C#-------5~~~~~~~~~~~~~~~~~~~~~~~~~~~~~~~~~~~~~~~~~~~~~~~~~~~~~~~~-|
G#-7~~~~~~~~~~~~~~~~~~~~~~~~~~~~~~~~~~~~~~~~~~~~~~~~~~~~~~~~~~~~~~-
C#-----------------------------------------------------------------

===================================================================

Guitar 1
D#-----------------------------------------------------------------|
A#-----------------------------------------------------------------|
F#-7---7---7---7---7---7---7---7---7---7---7---7---7---7---7---7---|
C#-7---7---7---7---7---7---7---7---7---7---7---7---7---7---7---7---|
G#-5---5---5---5---5---5---5---5---5---5---5---5---5---5---5---5---|
C#-----------------------------------------------------------------|

Guitar 2
D#-----------------------------------------------------------------|
A#-------------------7~~~~~~~~~~~~~~~~~~~~~~~~~~~~~~~~~~~~~~~~~~~~-|
F#-------------0~~~~~~~~~~~~~~~~~~~~~~~~~~~~~~~~~~~~~~~~~~~~~~~~~~-|
C#-------7~~~~~~~~~~~~~~~~~~~~~~~~~~~~~~~~~~~~~~~~~~~~~~~~~~~~~~~~-|
G#-5~~~~~~~~~~~~~~~~~~~~~~~~~~~~~~~~~~~~~~~~~~~~~~~~~~~~~~~~~~~~~~-
C#-----------------------------------------------------------------

===================================================================

Guitar 1
D#-----------------------------------------------------------------|
A#-----------------------------------------------------------------|
F#-9---9---9---9---9---9---9---9---9---9---9---9---9---9---9---9---|
C#-9---9---9---9---9---9---9---9---9---9---9---9---9---9---9---9---|
G#-7---7---7---7---7---7---7---7---7---7---7---7---7---7---7---7---|
C#-----------------------------------------------------------------|

Guitar 2
D#-----------------------------------------------------------------|
A#-------------------7~~~~~~~~~~~~~~~~~~~~~~~~~~~~~~~~~~~~~~~~~~~~-|
F#-------------0~~~~~~~~~~~~~~~~~~~~~~~~~~~~~~~~~~~~~~~~~~~~~~~~~~-|
C#-------5~~~~~~~~~~~~~~~~~~~~~~~~~~~~~~~~~~~~~~~~~~~~~~~~~~~~~~~~-|
G#-7~~~~~~~~~~~~~~~~~~~~~~~~~~~~~~~~~~~~~~~~~~~~~~~~~~~~~~~~~~~~~~-
C#-----------------------------------------------------------------

===================================================================

Guitar 1
D#-----------------------------------------------------------------|
A#-----------------------------------------------------------------|
F#-5---5---5---5---5---5---5---5---5---5---5---5---5---5---5---5---|
C#-5---5---5---5---5---5---5---5---5---5---5---5---5---5---5---5---|
G#-3---3---3---3---3---3---3---3---3---3---3---3---3---3---3---3---|
C#-----------------------------------------------------------------|

Guitar 2
D#-----------------------------------------------------------------|
A#-------------------5~~~~~~~~~~~~~~~~~~~~~~~~~~~~~~~~~~~~~~~~~~~~-|
F#-------------0~~~~~~~~~~~~~~~~~~~~~~~~~~~~~~~~~~~~~~~~~~~~~~~~~~-|
C#-------5~~~~~~~~~~~~~~~~~~~~~~~~~~~~~~~~~~~~~~~~~~~~~~~~~~~~~~~~-|
G#-3~~~~~~~~~~~~~~~~~~~~~~~~~~~~~~~~~~~~~~~~~~~~~~~~~~~~~~~~~~~~~~-
C#-----------------------------------------------------------------

===================================================================

Guitar 1
D#-----------------------------------------------------------------|
A#-----------------------------------------------------------------|
F#-9---9---9---9---9---9---9---9---9---9---9---9---9---9---9---9---|
C#-9---9---9---9---9---9---9---9---9---9---9---9---9---9---9---9---|
G#-7---7---7---7---7---7---7---7---7---7---7---7---7---7---7---7---|
C#-----------------------------------------------------------------|

Guitar 2
D#-----------------------------------------------------------------|
A#-------------------7~~~~~~~~~~~~~~~~~~~~~~~~~~~~~~~~~~~~~~~~~~~~-|
F#-------------0~~~~~~~~~~~~~~~~~~~~~~~~~~~~~~~~~~~~~~~~~~~~~~~~~~-|
C#-------5~~~~~~~~~~~~~~~~~~~~~~~~~~~~~~~~~~~~~~~~~~~~~~~~~~~~~~~~-|
G#-7~~~~~~~~~~~~~~~~~~~~~~~~~~~~~~~~~~~~~~~~~~~~~~~~~~~~~~~~~~~~~~-
C#-----------------------------------------------------------------

===================================================================

Guitar 1
D#-----------------------------------------------------------------|
A#-----------------------------------------------------------------|
F#-7---7---7---7---7---7---7---7---7---7---7---7---7---7---7---7---|
C#-7---7---7---7---7---7---7---7---7---7---7---7---7---7---7---7---|
G#-5---5---5---5---5---5---5---5---5---5---5---5---5---5---5---5---|
C#-----------------------------------------------------------------|

Guitar 2
D#-----------------------------------------------------------------|
A#-------------------7~~~~~~~~~~~~~~~~~~~~~~~~~~~~~~~~~~~~~~~~~~~~-|
F#-------------0~~~~~~~~~~~~~~~~~~~~~~~~~~~~~~~~~~~~~~~~~~~~~~~~~~-|
C#-------7~~~~~~~~~~~~~~~~~~~~~~~~~~~~~~~~~~~~~~~~~~~~~~~~~~~~~~~~-|
G#-5~~~~~~~~~~~~~~~~~~~~~~~~~~~~~~~~~~~~~~~~~~~~~~~~~~~~~~~~~~~~~~-
C#-----------------------------------------------------------------

===================================================================
===================================================================


Chorus 3

(x2)

Guitar 1
D#-----------------------------------------------------------------|
A#-----------------------------------------------------------------|
F#-9---9---9---9---9---9---9---9---9---9---9---9---9---9---9---9---|
C#-9---9---9---9---9---9---9---9---9---9---9---9---9---9---9---9---|
G#-7---7---7---7---7---7---7---7---7---7---7---7---7---7---7---7---|
C#-----------------------------------------------------------------|

Guitar 2
D#-----------------------------------------------------------------|
A#-------------------7~~~~~~~~~~~~~~~~~~~~~~~~~~~~~~~~~~~~~~~~~~~~-|
F#-------------0~~~~~~~~~~~~~~~~~~~~~~~~~~~~~~~~~~~~~~~~~~~~~~~~~~-|
C#-------5~~~~~~~~~~~~~~~~~~~~~~~~~~~~~~~~~~~~~~~~~~~~~~~~~~~~~~~~-|
G#-7~~~~~~~~~~~~~~~~~~~~~~~~~~~~~~~~~~~~~~~~~~~~~~~~~~~~~~~~~~~~~~-
C#-----------------------------------------------------------------

===================================================================

Guitar 1
D#-----------------------------------------------------------------|
A#-----------------------------------------------------------------|
F#-5---5---5---5---5---5---5---5---5---5---5---5---5---5---5---5---|
C#-5---5---5---5---5---5---5---5---5---5---5---5---5---5---5---5---|
G#-3---3---3---3---3---3---3---3---3---3---3---3---3---3---3---3---|
C#-----------------------------------------------------------------|

Guitar 2
D#-----------------------------------------------------------------|
A#-------------------5~~~~~~~~~~~~~~~~~~~~~~~~~~~~~~~~~~~~~~~~~~~~-|
F#-------------0~~~~~~~~~~~~~~~~~~~~~~~~~~~~~~~~~~~~~~~~~~~~~~~~~~-|
C#-------5~~~~~~~~~~~~~~~~~~~~~~~~~~~~~~~~~~~~~~~~~~~~~~~~~~~~~~~~-|
G#-3~~~~~~~~~~~~~~~~~~~~~~~~~~~~~~~~~~~~~~~~~~~~~~~~~~~~~~~~~~~~~~-
C#-----------------------------------------------------------------

===================================================================

Guitar 1
D#-----------------------------------------------------------------|
A#-----------------------------------------------------------------|
F#-9---9---9---9---9---9---9---9---9---9---9---9---9---9---9---9---|
C#-9---9---9---9---9---9---9---9---9---9---9---9---9---9---9---9---|
G#-7---7---7---7---7---7---7---7---7---7---7---7---7---7---7---7---|
C#-----------------------------------------------------------------|

Guitar 2
D#-----------------------------------------------------------------|
A#-------------------7~~~~~~~~~~~~~~~~~~~~~~~~~~~~~~~~~~~~~~~~~~~~-|
F#-------------0~~~~~~~~~~~~~~~~~~~~~~~~~~~~~~~~~~~~~~~~~~~~~~~~~~-|
C#-------5~~~~~~~~~~~~~~~~~~~~~~~~~~~~~~~~~~~~~~~~~~~~~~~~~~~~~~~~-|
G#-7~~~~~~~~~~~~~~~~~~~~~~~~~~~~~~~~~~~~~~~~~~~~~~~~~~~~~~~~~~~~~~-
C#-----------------------------------------------------------------

===================================================================

Guitar 1
D#-----------------------------------------------------------------|
A#-----------------------------------------------------------------|
F#-7---7---7---7---7---7---7---7---7---7---7---7---7---7---7---7---|
C#-7---7---7---7---7---7---7---7---7---7---7---7---7---7---7---7---|
G#-5---5---5---5---5---5---5---5---5---5---5---5---5---5---5---5---|
C#-----------------------------------------------------------------|

Guitar 2
D#-----------------------------------------------------------------|
A#-------------------7~~~~~~~~~~~~~~~~~~~~~~~~~~~~~~~~~~~~~~~~~~~~-|
F#-------------0~~~~~~~~~~~~~~~~~~~~~~~~~~~~~~~~~~~~~~~~~~~~~~~~~~-|
C#-------7~~~~~~~~~~~~~~~~~~~~~~~~~~~~~~~~~~~~~~~~~~~~~~~~~~~~~~~~-|
G#-5~~~~~~~~~~~~~~~~~~~~~~~~~~~~~~~~~~~~~~~~~~~~~~~~~~~~~~~~~~~~~~-
C#-----------------------------------------------------------------

===================================================================
===================================================================


Outro

(x2)

Guitar 1 & 2
D#-----------------------------------------------------------------|
A#-----------------------------------------------------------------|
F#-----------------------------------------------------------------|
C#-----------------------------------------------------------------|
G#-----------------------------------------------------------------|
C#-2---2---x---2~~~~~~-2---x---2~~~~~~-2---x---2~~~~~~-2---0~~~~~~-|

===================================================================

Guitar 1 & 2 continued
D#-----------------------------------------------------------------|
A#-----------------------------------------------------------------|
F#-----------------------------------------------------------------|
C#-----------------------------------------------------------------|
G#---------------------------------------------5---5---5---5---5---|
C#-2---2---x---2~~~~~~-2---0---5~~~~~~-5---0-----------------------|

===================================================================
===================================================================
===================================================================


Tab Legend
h - hammer-on
p - pull-off
/ - slide up
\ - slide down
ps/- pickslide up
ps\- pickslide down
~ - let ring
pm.- palm mute
b - bend
r - return from bend
* - harmonic
x - dead note
^ - Whammy bar
^\ - Whammy bar (hold down)

That's all of it! I hope this tab helped you, and if you've got any problems, be sure to 
check out my cover for visuals. Thanks, oh and one last thing... ROCK OUT!!!!
Добавлено: 11.09.2013
Вам также может быть интересно:
Другие материалы по этой песне:
  • Аккорды и текст

Страница создана 30.08.2013
http://primanota.ru/hopes-die-last/never-trust-the-hazel-eyed-chords.htm
Привет, Гость.
Предлагаем пройти революционный курс по гитаре.
Подарок от PrimaNota.Ru, забирай!