PrimaNota.ru - самый крупный в мире бесплатный архив песенных текстов, аккордов, табулатур и нот


Hopes Die Last - Call Me Sick Boy - текст песни, таба, бас-таба, видео

Регистрация Запомнить меня
Войти через:  Facebook Google Twitter Vk Yandex Mail.ru

Hopes Die Last - Call Me Sick Boy - текст песни, таба, бас-таба, видео

Печатать
Просмотров: 195
call me sick boy - hopes die last


verse:


Take a breath and tear it apart


both guitars:

e|----------------------------|
b|------8--8-----------8--8---|
g|------11-11----------11-11--|
d|-222---------222222---------|
a|-222---------222222---------|
d|-222---------222222---------|

   ...         ......

See things crystal clear


guitar 1:

e|--------------------------|
b|--------------------------|
g|--------------------------|
d|-5555555555--22222222222--|
a|-3333333333--22222222222--|
d|-------------22222222222--|


guitar 2:

e|------------------------|
b|------------------------|
g|-5555--7777--3333--9-7--|
d|-xxxx--xxxx--xxxx--x-x--|
a|-3333--5555--1111--7-5--|
d|------------------------|



And then scream against me 


both guitars:

e|----------------------------|
b|------8--8-----------8--8---|
g|------11-11----------11-11--|
d|-222---------222222---------|
a|-222---------222222---------|
d|-222---------222222---------|

   ...         ......

hurt me beat me


guitar 1:

e|--------------------------|
b|--------------------------|
g|--------------------------|
d|-5555555555--22222222222--|
a|-3333333333--22222222222--|
d|-------------22222222222--|


guitar 2:

e|------------------------|
b|------------------------|
g|-5555--7777--3333--9-7--|
d|-xxxx--xxxx--xxxx--x-x--|
a|-3333--5555--1111--7-5--|
d|------------------------|


We were just joking like clowns


guitar 1:

e|-------------------|
b|-------------------|
g|-------------------|
d|-55555555555--222--|
a|-33333333333--222--|
d|--------------222--|

                ...

gutar 2:

e|------------------------|
b|------------------------|
g|-12-12-12-12-12-12------|
d|-x--x--x--x--x--x---222-|
a|-10-10-10-10-10-10--222-|
d|--------------------222-|

                      ...


Handling life and letting it drown
"are you kidding me?" 
I heard myself loud


guitar 1:

e|-------------------|
b|-------------------|
g|-------------------|
d|-55555555555--222--|
a|-33333333333--222--|
d|--------------222--|

                

gutar 2:

e|------------------------|
b|------------------------|
g|-12-12-12-12-12-12------|
d|-x--x--x--x--x--x---222-|
a|-10-10-10-10-10-10--222-|
d|--------------------222-|


Because I shouldn't let you go
Can't be waiting anymore


guitar 1:

e|--------------------|
b|--------------------|
g|--------------------|
d|-55555555555--2222--|
a|-33333333333--2222--|
d|--------------2222--|

                ....

gutar 2:

e|-------------------------|
b|-------------------------|
g|-12-12-12-12-12-12-------|
d|-x--x--x--x--x--x---2222-|
a|-10-10-10-10-10-10--2222-|
d|--------------------2222-|

                      ....



solo:


guitar 2:

e|--------7*--------|
b|-8--8------7*-----|
g|-11-11--------7*--|
d|------------------|
a|------------------|
d|------------------|



I've got enough of senseless cries



both guitars:

e|----------------------------|
b|------8--8-----------8--8---|
g|------11-11----------11-11--|
d|-222---------222222---------|
a|-222---------222222---------|
d|-222---------222222---------|

   ...         ......



It's not easy to break through


guitar 1:

e|--------------------------|
b|--------------------------|
g|--------------------------|
d|-5555555555--22222222222--|
a|-3333333333--22222222222--|
d|-------------22222222222--|


guitar 2:

e|------------------------|
b|------------------------|
g|-5555--7777--3333--9-7--|
d|-xxxx--xxxx--xxxx--x-x--|
a|-3333--5555--1111--7-5--|
d|------------------------|



But then scream against me



both guitars:

e|----------------------------|
b|------8--8-----------8--8---|
g|------11-11----------11-11--|
d|-222---------222222---------|
a|-222---------222222---------|
d|-222---------222222---------|

   ...         ......



hurt me beat me



guitar 1:

e|--------------------------|
b|--------------------------|
g|--------------------------|
d|-5555555555--22222222222--|
a|-3333333333--22222222222--|
d|-------------22222222222--|


guitar 2:

e|------------------------|
b|------------------------|
g|-5555--7777--3333--9-7--|
d|-xxxx--xxxx--xxxx--x-x--|
a|-3333--5555--1111--7-5--|
d|------------------------|



Stand beside me 


guitar 1:

e|-------------------|
b|-------------------|
g|-------------------|
d|-55555555555--222--|
a|-33333333333--222--|
d|--------------222--|

                
gutar 2:

e|------------|
b|------------|
g|-5555-------|
d|-xxxx--222--|
a|-3333--222--|
d|-------222--|



Let me see what those hands hide



guitar 1:

e|-------------------|
b|-------------------|
g|-------------------|
d|-55555555555--222--|
a|-33333333333--222--|
d|--------------222--|

                
gutar 2:

e|------------|
b|------------|
g|-5555-------|
d|-xxxx--222--|
a|-3333--222--|
d|-------222--|



Don't be scared about me


guitar 1:

e|-------------------|
b|-------------------|
g|-------------------|
d|-55555555555--222--|
a|-33333333333--222--|
d|--------------222--|

   ...........



guitar 2:

e|--------------------------------------------------------------|
b|--------------------------------------------------------------|
g|----------11-11-11-12-12-12-12-12-12----------11-11-11-12-12--|
d|-10-10-10----------------------------10-10-10-----------------|
a|--------------------------------------------------------------|
d|--------------------------------------------------------------|

  ............................................................



I am here just to see you die 



guitar 1:

e|--------------------------|
b|--------------------------|
g|--------------------------|
d|-555555555555555555--222--|
a|-333333333333333333--222--|
d|---------------------222--|

   ..................



guitar 2:

e|------------------------------------------------------|
b|------------------------------------------------------|
g|----------11-11-11-12-12-12-12-12-12-7-7-7-7-7-7-7-9--|
d|-10-10-10---------------------------------------------|
a|------------------------------------------------------|
d|------------------------------------------------------|

  ....................................................



White dressed angel let me try to take you high
take you as high as i can fly


guitar 1:

e|-----------------------------|
b|-----------------------------|
g|-----------------------------|
d|-22222--00000--22222--55555--|
a|-22222--00000--22222--33333--|
d|-22222--00000--22222---------|



guitar 2:

e|-----------------------------------------|
b|-12-12-12--10-10-10--15-15-15--13-13-13--|
g|-12-12-12--12-12-12--12-12-12--12-12-12--|
d|-12-12-12--12-12-12--12-12-12--12-12-12--|
a|-----------------------------------------|
d|-----------------------------------------|


flyyyy


guitar 1:

e|--------|
b|--------|
g|--------|
d|-55555--|
a|-33333--|
d|--------|



guitar 2:

e|-----------|
b|-12-12-12--|
g|-12-12-12--|
d|-12-12-12--|
a|-----------|
d|-----------|



after chorus:

e|---------------------------------|
b|-----0-------0-------0-------0---|
g|--0---0---0---0---0---0---0---0--|
d|-0-0-----0-0-----0-0-----0-0-----|
a|---------------------------------|
d|---------------------------------|



Stand beside me 
Let me see what it tastes like
Don't be scared about me
I am here just to see you die


guitar 1: 

e|---------------------------------|
b|-----2-------2-------2-------2---|
g|--0---0---0---0---0---0---0---0--|
d|-0-0-----0-0-----0-0-----0-0-----|
a|---------------------------------|
d|---------------------------------|



without the singing part:



both guitars:

e|-----------------------------------------|
b|-----------------------------------------|
g|-----------------------------------------|
d|-2222-2222--2h3p2---------2222-2222-222--|
a|-2222-2222---------3p2h3--2222-2222-222--|
d|-2222-2222----------------2222-2222-222--|

   ...  ...                 ...  ...  . .


e|---------------------------------------|
b|---------------------------------------|
g|---------------------------------------|
d|-5555-5555-5555555-5555-5555-555--222--|
a|-3333-3333-3333333-3333-3333-333--222--|
d|----------------------------------222--|

   ...  ...  ....... ...  ...  . .  ...



i committed suicide
i just died to see you cry

guitar 1:

e|---------------------------------------|
b|---------------------------------------|
g|---------------------------------------|
d|-222222222222222222--5555555555555555--|
a|-222222222222222222--3333333333333333--|
d|-222222222222222222--------------------|



gutar 2:

e|--------------------------------------|
b|-7---------7---------7---------8--8---|
g|--9---9-9---9---9-9---9---9-9--11-11--|
d|---9---9-----9---9-----9---9----------|
a|--------------------------------------|
d|--------------------------------------|



But don't blame me
That's my only sweet laugh


guitar 1:

e|---------------------------------------|
b|---------------------------------------|
g|---------------------------------------|
d|-222222222222222222--5555555555555555--|
a|-222222222222222222--3333333333333333--|
d|-222222222222222222--------------------|


guitar 2: 

e|---------------------------------|
b|-----2-------2-------2-------2---|
g|--0---0---0---0---0---0---0---0--|
d|-0-0-----0-0-----0-0-----0-0-----|
a|---------------------------------|
d|---------------------------------|



So don't blame me
I couldn't reach the afterlife
So don't hate me
Because i've never felt your heart beating
Then I fucked up mine



guitar 1:

e|---------------------------------------|
b|---------------------------------------|
g|---------------------------------------|
d|-777777777777777777--5555555555555555--|
a|-555555555555555555--3333333333333333--|
d|---------------------------------------|


guitar 2: 

e|---------------------------------|
b|-----2-------2-------2-------2---|
g|--0---0---0---0---0---0---0---0--|
d|-0-0-----0-0-----0-0-----0-0-----|
a|---------------------------------|
d|---------------------------------|




White dressed angel let me try to take you high
take you as high as i can fly



guitar 1:

e|-----------------------------|
b|-----------------------------|
g|-----------------------------|
d|-22222--00000--22222--55555--|
a|-22222--00000--22222--33333--|
d|-22222--00000--22222---------|



guitar 2:

e|-----------------------------------------|
b|-12-12-12--10-10-10--15-15-15--13-13-13--|
g|-12-12-12--12-12-12--12-12-12--12-12-12--|
d|-12-12-12--12-12-12--12-12-12--12-12-12--|
a|-----------------------------------------|
d|-----------------------------------------|




flyyyy



guitar 1:

e|--------|
b|--------|
g|--------|
d|-55555--|
a|-33333--|
d|--------|



guitar 2:

e|-----------|
b|-12-12-12--|
g|-12-12-12--|
d|-12-12-12--|
a|-----------|
d|-----------|




Writing desperation through heartache and joyful smiles
Blue and happy at the same time 


guitar 1:

e|------------------------------|
b|------------------------------|
g|------------------------------|
d|-55--22--77--55--22--7777777--|
a|-33--22--55--33--22--5555555--|
d|-----22----------22-----------|



guitar 2:

e|----5-3-7--3----------10-5-3-7--|
b|---------------7h8p7------------|
g|-7*-----------------------------|
d|--------------------------------|
a|--------------------------------|
d|--------------------------------|


Stand beside me 
Let me see what it tastes like
Don't be scared about me
I am here just to see you die



guitar 1:

e|------------------------------|
b|------------------------------|
g|------------------------------|
d|-55--22--77--55--22--7777777--|
a|-33--22--55--33--22--5555555--|
d|-----22----------22-----------|



guitar 2:

e|----5-3-7--3----------10-5-3-7--|
b|---------------7h8p7------------|
g|-7*-----------------------------|
d|--------------------------------|
a|--------------------------------|
d|--------------------------------|



both guitars:

e|-------------|
b|------8--8---|
g|------11-11--|
d|-222---------|
a|-222---------|
d|-222---------|

   ...         



legends:

p = pull of
h = hammer
. = palm mute
* = harmonic
Добавлено: 01.04.2012
Другие материалы по этой песне:

Страница создана 01.04.2012
http://primanota.ru/hopes-die-last/call-me-sick-boy-chords.htm
Привет, Гость.
Предлагаем пройти революционный курс по гитаре.
Подарок от PrimaNota.Ru, забирай!