PrimaNota.ru - самый крупный в мире бесплатный архив песенных текстов, аккордов, табулатур и нот


Hopeless - The Factory - таба, видео

Регистрация Запомнить меня
Войти через:  Facebook Google Twitter Vk Yandex Mail.ru

Hopeless - The Factory - таба, видео

Печатать
Просмотров: 103
Ok... This one's pretty sketchy but it's in the the right area...

Song: The Factory
Band: Hopeless
Album: Dear World
Tabber: Jimi - ThisIsWhereMyHe


Drop C# or Brop Db tuning
which ever floats your boat =)

After bass/drum intro:
------------------|------------------|
------------------|------------------|
------------------|1010101010101010--|
--1212121212121212|1212121212121212--|
------------------|------------------|
------------------|------------------|

CHORUS:
------------------------------------|
------------------------------------|
--7-7-7-7-7-7-9-9-1010101010101010--|
------------------------------------|
--5-5-5-5-5-5-7-7-8-8-8-8-8-8-8-8---|
------------------------------------|


-------------------------------------------|
-------------------------------------------|
-------------------------------------------|
--3-3-3-3-3-3-3-3-10-10-10-10-10-10-10-10--|
--3-3-3-3-3-3-3-3-10-10-10-10-10-10-10-10--|
--3-3-3-3-3-3-3-3-10-10-10-10-10-10-10-10--|

The other guitarist plays 0s instead of 10s:
-----------------------------------|
-----------------------------------|
-----------------------------------|
--3-3-3-3-3-3-3-3-0-0-0-0-0-0-0-0--|
--3-3-3-3-3-3-3-3-0-0-0-0-0-0-0-0--|
--3-3-3-3-3-3-3-3-0-0-0-0-0-0-0-0--|

Verse 1: (figure out the strumming)
--------------------------------------|
--------------------------------------|
--------------------------------------|
--0--------------3---------10---------|
--0--------------3---------10---------|
--0--------------3---------10---------|

CHORUS AGAIN

Verse 2:   (this is NOT right!)
-----------------------------------|
-----------------------------------|
--7---7-7-7-7-7-7-7-7-7-7-7-9-10---|
-----------------------------------|
-----------------------------------|
-----------------------------------|


------------------------------------|
------------------------------------|
--9---9-9-9-9-9-9-9-9-9-9-9-10-12---|
------------------------------------|
------------------------------------|
------------------------------------|

Verse 2 Part 2:
---------------------|
---------------------|
--10--9-9-9-12p10p9--|
---------------------|
---------------------|
---------------------|

then play 0 four times:
---------------------|
---------------------|
---------------------|
--0------------------|
--0------------------|
--0------------------|

guitar two comes in on the last time
bend the 14 to the note of the 15th fret.
Then pick scRape.
------------------------------------------!--!!
--14b-(15)-(15)-(15)-(15)-(15)-(15)-(15)-----!!keep
---------------------------------------------!!plaing
---------------------------------------------!!that
---------------------------------------------!!note
------------------------------------------!--!!

SOLO!!!!!

2.32
---------------------------|
----------6-8-8-8b--8p6----|
------5-7---------------7--|
--5-7----------------------|
---------------------------|
---------------------------|


2.35
----------------------------------|
------6-8-9-8-6--------------6b~--|
--5-7-----------7-5-5-555-7-------|
----------------------------------|
----------------------------------|
----------------------------------|


2.40
-------------------------|
--8-6---------6-8-8-8p6--|
--------7-5-7------------|
-------------------------|
-------------------------|
-------------------------|


2.43
--8---8---8---8-----------------------------|
----8---9---8---9--9-8-6-8-------6-8-8-8p6--|
---------------------------7-5-7------------|
--------------------------------------------|
--------------------------------------------|
--------------------------------------------|


2.49
------------------------------------------|
-------------------------------------15~--|
------------------------------------------|
------I-DONT-KNOW!!!!!!!------------------|
------------------------------------------|
------------------------------------------|

Breakdown: (figure strums)
-----------------------------------------------|
-----------------------------------------------|
--3---2---------------------------------3---2--|
------------0-1-0-8---0-1-0-8---0-1-8----------|
--1---0-----0-1-0-8---0-1-0-8---0-1-8---1---0--|
------------0-1-0-8---0-1-0-8---0-1-8----------|


-----------------------------------------------|
-----------------------------------------------|
--3---2---------------------------------3---2--|
------------0-1-0-8---0-1-0-8---0-1-8----------|
--1---0-----0-1-0-8---0-1-0-8---0-1-8---1---0--|
------------0-1-0-8---0-1-0-8---0-1-8----------|


-------------------------------------------------------------|
-------------------------------------------------------------|
--3---2------------------------------------3---5----7--5--3--|
------------0-1-0-12---0-1-0-12---0-1-12---------------------|
--1---0-----0-1-0-12---0-1-0-12---0-1-12---1---3-------------|
------------0-1-0-12---0-1-0-12---0-1-12---------------------|

PLEASE RATE AND COMMENT!
THANKS!
LYRICS BELOW!


Welcome to the factory,
Where we churn out mass amounts of company.
Watch our underground films,
Gritty pornographic low budget stills.
Going out when you want to stay home,
Shadows and footsteps of people I used to know
The luggage under your eyes,
Open long enough to see your star shine.

The show is a masquerade,
Silly masks on to the road to fame
Your hopes and dreams,
Fake courage behind the scenes.
Fake smile, hidden rebel child,
Every truth backed with denial.
At last there's an end,
On this life behind the lens.

A search light to the night,
Shake my teenage tears,
Into adult aches,
Crafting my greatest fears.
Simple words never enough,
Photo shoots form a training ground,
Miles away from home.

WE NEVER MADE IT!
Добавлено: 16.07.2012
Другие материалы по этой песне:
  • Аккорды и текст

Страница создана 16.07.2012
http://primanota.ru/hopeless/the-factory-chords.htm
Привет, Гость.
Предлагаем пройти революционный курс по гитаре.
Подарок от PrimaNota.Ru, забирай!