PrimaNota.ru - самый крупный в мире бесплатный архив песенных текстов, аккордов, табулатур и нот


Hope College Worship - Gloria Sea Dios - бас-таба, видео

Регистрация Запомнить меня
Войти через:  Facebook Google Twitter Vk Yandex Mail.ru

Hope College Worship - Gloria Sea Dios - бас-таба, видео

Печатать
Просмотров: 42
Gloria Sea Dios - Bass Tab

Note: A few parts I had to guess on since it was difficult 
to hear the bass part because of the other instruments or 
because of the playing speed.

_______________

Key

\  = slide down
h  = hammer on
~  = let ring
() = optional note

_______________


[Intro (bass comes in at 0:10)]
G|------------------------------------------------------------|
D|------------------------------------------------------------|
A|-7\2----------5h7--------7--5h7~----------------------------|
E|-----0~------------0~---------------------------------------|

G|------------------------------------------------------------|
D|------------------------------------------------------------|
A|------------------------5-7-----------------------------5h7-|
E|-0----0--7----7--5----5-----7-0----0--7----7--8----8--5-----|

G|------------------------------------------------------------|
D|------------------------------------------------------------|
A|------------------------5h7-5h7-----------------------------|
E|-0----0--7----7--5----5---------0----0--7----7--8----8--5---|

[Verse I]
[x2]
G|------------------------------------------------------------|
D|------------------------------------------------------------|
A|------------------------------------------------------------|
E|-0----7----5------7--0----7----8----5----7--5---------------|

[Pre-Chorus]
G|------------------------------------------------------------|
D|------------------------------------------------------------|
A|------------------5h7------------------5-7------------------|
E|-0----7----5----------0----7----8----5-----7-0----7----5----|

G|------------------------------------------------------------|
D|------------------------------------------------------------|
A|-5h7-5h7----------------------------------------------------|
E|---------0----7----8--7----7-7-7-7-7-7-7-7-7-7-7------------|

[Chorus]
G|------------------------------------------------------------|
D|-------7--------------------------------7-------------------|
A|-3--5-------------5--5----5--5----3--5---------------5--5---|
E|------------3--3-----------------------------3--3-----------|

G|------------------------------------------------------------|
D|----------------------7-------------------------------------|
A|-5-0-5-3-2-0----3--5---------------5--5----5--5----0h2h3--5-|
E|-------------3-------------3--3-----------------------------|

G|------------------------------------------------------------|
D|-7----------------------------------------------------------|
A|--------------5--5------------------------------------------|
E|------3--3------------(8)--7----7-7-7-7-7-7-7-7-7-7-7-------|

[Interlude]
G|------------------------------------------------------------|
D|------------------------------------------------------------|
A|------------------------5-7-----------------------------5h7-|
E|-0----0--7----7--5----5-----7-0----0--7----7--8----8--5-----|

G|------------------------------------------------------------|
D|------------------------------------------------------------|
A|------------------------5h7-5h7-----------------------------|
E|-0----0--7----7--5----5---------0----0--7----7--8----8--5---|


[Verse II (Same as Verse I)]

[Pre-Chorus (Same as before)]

[Chorus (Same as before)]

[Bridge]
G|------------------------------------------------------------|
D|------------------------------------------------------------|
A|------------------------------------------------------------|
E|-0~----------0~----------0~----------0~---------------------|

G|------------------------------------------------------------|
D|------------------------------------------------------------|
A|------------------------5-7-----------------------------5h7-|
E|-0----0--7----7--5----5-----7-0----0--7----7--8----8--5-----|

G|------------------------------------------------------------|
D|------------------------------------------------------------|
A|------------------------5h7-5h7-----------------------------|
E|-0----0--7----7--5----5---------0----0--7----7--8--7--------|

G|------------------------------------------------------------|
D|------------------------------------------------------------|
A|------------------------------------------------------------|
E|-7-7-7-7-7-7-7-7-7-7-7--------------------------------------|

[Chorus]
[x12]
G|------------------------------------------------------------|
D|------------------------------------------------------------|
A|-3---------5~-----------------------------------------------|
E|------3-----------------------------------------------------|


If there's any confusion, questions, or advice on how to 
improve it, please post a comment. Have fun playing, and 
please rate! -Rarrlow
Добавлено: 31.12.2015
Другие материалы по этой песне:
  • Аккорды и текст

Страница создана 31.12.2015
http://primanota.ru/hope-college-worship/gloria-sea-dios-chords.htm
Привет, Гость.
Предлагаем пройти революционный курс по гитаре.
Подарок от PrimaNota.Ru, забирай!