PrimaNota.ru - самый крупный в мире бесплатный архив песенных текстов, аккордов, табулатур и нот


Hope College Worship - Forever Reign - бас-таба, видео

Регистрация Запомнить меня
Войти через:  Facebook Google Twitter Vk Yandex Mail.ru

Hope College Worship - Forever Reign - бас-таба, видео

Печатать
Просмотров: 71
Forever Reign - Bass Tab

Key: C

Tuning: Standard

[Intro]
[x1]
G|------------------------------------------------------------|
D|------------------------------------------------------------|
A|-3~--------3~--------3~--------3~-------------------------2-|
E|----------------------------------------3/5--5-7h8-3--3-5---|

[Verse I/Verse II]
[x2]
G|------------------------------------------------------------|
D|------------------------------------------------------------|
A|-3~--------3~----3h5----------------------------------------|
E|----------------------3~--------3~----3h5-------------------|

[x1]
G|------------------------------------------------------------|
D|------------------------------------------------------------|
A|-3~-------------------------2-------------------------------|
E|----------3/5--5-7h8-3--3-5---------------------------------|

[Chorus I]
[x1]
G|------------------------------------------------------------|
D|------------------------------------------------------------|
A|-3----------------------------------------------------------|
E|----------3--------5--------3--------1----------------------|

G|------------------------------------------------------------|
D|------------------------------------------------------------|
A|------------------------------------------------------------|
E|-5----3----1--------5----3----------------------------------|

G|------------------------------------------------------------|
D|------------------------------------------------------------|
A|-3~-------------------------2-------------------------------|
E|----------3/5--5-7h8-3--3-5---------------------------------|

[Verse III]
[x2]
G|------------------------------------------------------------|
D|------------------------------------------------------------|
A|-3--3--3--3--3--3--3h5--------------------------------------|
E|-------------------------3--3--3--3--3--3--3--3h5-----------|

[x1]
G|------------------------------------------------------------|
D|------------------------------------------------------------|
A|-3--3--3--3--3--3--3--3--------------------------2----------|
E|-------------------------3/5--5--5-7h8-3--3--3-5------------|

[Chorus II]
[x2]
G|------------------------------------------------------------|
D|------------------------------------------------------------|
A|-3--3--3--3--3--3--5--2--------------------3--2-------------|
E|-------------------------3--3--3--3--3--3--------5--5--5--5-|

G|------------------------------------------------------------|
D|------------------------------------------------------------|
A|-------3--2--------------------3--2--------------------3--2-|
E|-5--5--------3--3--3--3--3--3--------1--1--1--1--1--1-------|

G|------------------------------------------------------------|
D|------------------------------------------------------------|
A|-------------------------------------------3--2-------------|
E|-5--5--5--5--3--3--3--3--1--1--1--1--1--1--------5--5--5--5-|

G|------------------------------------------------------------|
D|------------------------------------------------------------|
A|------------------------------------------------------------|
E|-3--3--3--3-------------------------------------------------|

[x1]
G|------------------------------------------------------------|
D|------------------------------------------------------------|
A|-3--3--3--3--3--3--3--3-------------------------------------|
E|-------------------------3/5--5--5-7h8-3--3--3--3-----------|

[Bridge]
[x4]
G|------------------------------------------------------------|
D|------------------------------------------------------------|
A|---------------------3~-------------------------------------|
E|-5~--------1~------------------3~---------------------------|

[Chorus III]
[x2]
G|------------------------------------------------------------|
D|------------------------------------------------------------|
A|-3--3--3--3--3--3--5--2--------------------3--2-------------|
E|-------------------------3--3--3--3--3--3--------5--5--5--5-|

G|------------------------------------------------------------|
D|------------------------------------------------------------|
A|-------3--2--------------------3--2--------------------3--2-|
E|-5--5--------3--3--3--3--3--3--------1--1--1--1--1--1-------|

G|------------------------------------------------------------|
D|------------------------------------------------------------|
A|-------------------------------------------3--2-------------|
E|-5--5--5--5--3--3--3--3--1--1--1--1--1--1--------5--5--5--5-|

G|------------------------------------------------------------|
D|------------------------------------------------------------|
A|------------------------------------------------------------|
E|-3--3--3--3-------------------------------------------------|

[x2]
G|------------------------------------------------------------|
D|------------------------------------------------------------|
A|-3--3--3--3--3--3--3--3--------------------------2----------|
E|-------------------------3/5--5--5-7h8-3--3--3-5------------|

[x1]
G|------------------------------------------------------------|
D|------------------------------------------------------------|
A|-3~---------------------------------------------------------|
E|------------------------------------------------------------|

If there's any confusion, questions, or advice on how to 
improve it, please post a comment. Have fun playing, and 
please rate! -Rarrlow
Добавлено: 21.06.2015
Другие материалы по этой песне:
  • Аккорды и текст

Страница создана 21.06.2015
http://primanota.ru/hope-college-worship/forever-reign-chords.htm
Привет, Гость.
Предлагаем пройти революционный курс по гитаре.
Подарок от PrimaNota.Ru, забирай!