PrimaNota.ru - самый крупный в мире бесплатный архив песенных текстов, аккордов, табулатур и нот


Hope College Worship - Come Ye Sinners - бас-таба, видео

Регистрация Запомнить меня
Войти через:  Facebook Google Twitter Vk Yandex Mail.ru

Hope College Worship - Come Ye Sinners - бас-таба, видео

Печатать
Просмотров: 55
Come Ye Sinners - Bass Tab

Key: C#m
______________

Key

h = hammer on
~ = let ring
______________

[Intro]
[x2]
G|------------------------------------------------------------|
D|------------------------------------------------------------|
A|-4---------------7-------6----------------------------------|
E|---------5--------------------------------------------------|

[Verse I/Verse IV]
[x2]
G|------------------------------------------------------------|
D|------------------------------------------------------------|
A|-4---------------7-------6----------------------------------|
E|---------5--------------------------------------------------|

[x1]
G|------------------------------------------------------------|
D|-------------------------4----------------------------------|
A|-4-------7-------6------------6-----------------------------|
E|------------------------------------------------------------|

[x1]
G|------------------------------------------------------------|
D|------------------------------------------------------------|
A|-4---------------2-------4------4------4------4-------------|
E|---------5--------------------------------------------------|

[Chorus/Verse II/Verse III/Verse V]
[x2]
G|------------------------------------------------------------|
D|------------------------------------------------------------|
A|-4----4----------7----7--6----6-----------------------------|
E|---------5----5---------------------------------------------|

[x1]
G|------------------------------------------------------------|
D|-------------------------4----------------------------------|
A|-4----4--7----7--6----6-------6-----------------------------|
E|------------------------------------------------------------|

[x1]
G|------------------------------------------------------------|
D|------------------------------------------------------------|
A|-4----4----------2----2--4----2h4-2h4----2h4-2h4----2h4-2h4-|
E|---------5----5---------------------------------------------|

G|------------------------------------------------------------|
D|------------------------------------------------------------|
A|-2h4--2h4---------------------------------------------------|
E|------------------------------------------------------------|

[Verse I (End)]
[x2]
G|------------------------------------------------------------|
D|------------------------------------------------------------|
A|-4---------------7-------6----------------------------------|
E|---------5--------------------------------------------------|

[x1]
G|------------------------------------------------------------|
D|-------------------------4----------------------------------|
A|-4-------7-------6------------6-----------------------------|
E|------------------------------------------------------------|

[x1]
G|------------------------------------------------------------|
D|------------------------------------------------------------|
A|-4---------------2-------4~---------------------------------|
E|---------5--------------------------------------------------|

If there's any confusion, questions, or advice on how to 
improve it, please post a comment. Have fun playing, and 
please rate! -Rarrlow
Добавлено: 31.12.2015
Вам также может быть интересно:
Другие материалы по этой песне:
  • Аккорды и текст

Страница создана 31.12.2015
http://primanota.ru/hope-college-worship/come-ye-sinners-chords.htm
Привет, Гость.
Предлагаем пройти революционный курс по гитаре.
Подарок от PrimaNota.Ru, забирай!