PrimaNota.ru - самый крупный в мире бесплатный архив песенных текстов, аккордов, табулатур и нот


Hop Along - Happy To See Me - таба, видео

Регистрация Запомнить меня
Войти через:  Facebook Google Twitter Vk Yandex Mail.ru

Hop Along - Happy To See Me - таба, видео

Печатать
Просмотров: 45
-------------------------------------------------------------------------------
                             Happy to See Me 
-------------------------------------------------------------------------------


Tuning: standard Capo on 1st fret   -  fret numbers relative to capo (aka 7th fret is the 8th fret normally)



first part - intro/ 1st verse (not 100% what she plays but its something to work off of)
e|----------------------------------------------------|
B|----------------------------------------------------|
G|----------------------------------------------------|
D|-7-7-11-11-7~---7~---7~---7~-------7----7----7------| keep picking single notes until it repeats  
A|-0-0-0--0--11~--12~--11~--12~---12---12---12--------|
E|-0-0-0--0--0~---0~---0~---0~------------------------|


2nd verse

strum chords 
e|---------------------------------------------------------------------------|
B|---------------------------------------------------------------------------|
G|--4----2----------4--2------------4------2~-------4-----2------4-----2-----|
D|--6----4----4-----6--4--4---7-----6------4~-------6-----4------6-----4-----|
A|--7----5----4-----7--5--4---7-----7-x2---5~-x2----7-x2--5-x2---7-x2--5-x8--|
E|--7----5----2-----7--5--2---5-----7------5~-------7-----5------7-----5-----|


Bridge "father gets up at..."

strum and mute chords 
e|------------------|
B|------------------|
G|-----2--4--2------|
D|-7---4--6--4------|
A|-7---5--7--5------|
E|-5---5--7--5------|


thats pretty much it. Anything else is just repeats of certain parts and such but thats all the chords. 




************************************

| /   slide up
| \   slide down
| h   hammer-on
| p   pull-off
| ~   vibrato
| +   harmonic
| x   Mute note
| b   Bend
| pb  Pre-bend
| br  Bend release
| pbr Pre-bend release
| brb Bend release bend

************************************
Добавлено: 27.03.2016
Другие материалы по этой песне:
  • Аккорды и текст

Страница создана 27.03.2016
http://primanota.ru/hop-along/happy-to-see-me-chords.htm
Привет, Гость.
Предлагаем пройти революционный курс по гитаре.
Подарок от PrimaNota.Ru, забирай!