PrimaNota.ru - самый крупный в мире бесплатный архив песенных текстов, аккордов, табулатур и нот


Hoola Bandoola Band - Keops Pyramid - таба, видео

Регистрация Запомнить меня
Войти через:  Facebook Google Twitter Vk Yandex Mail.ru

Hoola Bandoola Band - Keops Pyramid - таба, видео

Печатать
Просмотров: 125
Уроки эстрадного вокала в Санкт-Петербурге
Авторы музыки: Mikael Wiehe
Авторы текста: Mikael Wiehe
-------------------------------------------------------------------------------
                                                      Keops Pyramid
                           Hoola Bandoola band
-------------------------------------------------------------------------------
Tabbed by:raze666
Email:Rasmus.bjork@yahoo.se

Tuning:Standard
hittade inte någon tab på den här låten.. så lärde mig på gehör o.. låter rätt bra! 
timming får ni höra själva! det här är introt o det första solot!
introt:
e|--------------------------------------------10-9-10-9-10-9h10p9------------|
B|---8-8-12-10-12-10-12-10h12p10---------8-12---------------------10-10/12---|
G|-9-----------------------------11-9--9-------------------------------------|
D|---------------------------------------------------------------------------|
A|---------------------------------------------------------------------------|
E|---------------------------------------------------------------------------|

Efter att han sjungit klart kommer introt igen!

e|----------------------------------------10-9-10-9-10-9h10p9----------------|
B|---8-8-12-10-12-10-10h12p10--------8-12---------------------10-10/12-------|
G|-9--------------------------11-9-9-----------------------------------------|
D|---------------------------------------------------------------------------|
A|---------------------------------------------------------------------------|
E|---------------------------------------------------------------------------|

När du har spelat det kommer det ett litet "solo" typ som du direkt fortsätter med efter introt:

e|---------------------------------------------------------------------------|
B|-12-15-14-14h15p14----------------------------------12-15-14-14h15p14------|
G|------------------14-16--12-16-14-16-14-16-14-11-9-------------------14-16-|
D|---------------------------------------------------------------------------|
A|---------------------------------------------------------------------------|
E|---------------------------------------------------------------------------|

e|---------------------------------------------------------------------------|
B|-13------------0/12-15-14-14h15p14-------------------------------0/12-15---|
G|---16-14-12-14--------------------14-16-12-16-14-16-14-16-14-11-9----------|
D|---------------------------------------------------------------------------|
A|---------------------------------------------------------------------------|
E|---------------------------------------------------------------------------|

e|---------------------------------------------------------------------------|
B|-14-14h15p14---------------------------------------------------------------|
G|------------14-16-14-12-11-7-9---------------------------------------------|
D|---------------------------------------------------------------------------|
A|---------------------------------------------------------------------------|
E|---------------------------------------------------------------------------|

låten är ganska lätt och det låter väldigt bra! är också vibrato på de flesta långa noterna!
har nån frågor eller tips så maila bara eller kommentera!
Peace Out!

************************************

| /   slide up
| \   slide down
| h   hammer-on
| p   pull-off
| ~   vibrato

************************************
Добавлено: 17.06.2013
Другие материалы по этой песне:
  • Аккорды и текст

Страница создана 17.06.2013
http://primanota.ru/hoola-bandoola-band/keops-pyramid-chords.htm
Привет, Гость.
Предлагаем пройти революционный курс по гитаре.
Подарок от PrimaNota.Ru, забирай!