PrimaNota.ru - самый крупный в мире бесплатный архив песенных текстов, аккордов, табулатур и нот


Hoods - The King Is Dead - таба, видео

Регистрация Запомнить меня
Войти через:  Facebook Google Twitter Vk Yandex Mail.ru

Hoods - The King Is Dead - таба, видео

Печатать
Просмотров: 108
The King Is Dead

D#|----------------|
A#|----------------|
F#|----------------|
C#|--4--4--4--4--4\|
G#|--4--4--4--4--4\|
C#|--4--4--4--4--4\|

D#|-------------------|
A#|-------------------|
F#|-------------------|   Repeat 8x listen for the slight rhythm change
C#|--1-0-1-3-4-0-1-0--|   on the 6th time I'm not gonna tab that shit out 
G#|--1-0-1-3-4-0-1-0--|    
C#|--1-0-1-3-4-0-1-0--|

D#|-------------------------------------------|
A#|-------------------------------------------|
F#|--6---5-------------6---5------------------|   Repeat 4x   
C#|--4-0-3-00000000000-4-0-3-00-0-0-1-0-3-0-4-|
G#|----0---00000000000---0---00-0-0-1-0-3-0-4-|
C#|----0---00000000000---0---00-0-0-1-0-3-0-4-|

D#|-------------------------------------------|
A#|-------------------------------------------|
F#|-------------------------------------------|
C#|-4--3-3----4--3-3---4--3-3---4-3-6-5-0-1/--|
G#|-4--3-3----4--3-3---4--3-3---4-3-4-3-0-1/--|
C#|-4--3-3----4--3-3---4--3-3---4-3-----0-1/--|

D#|--------------------------------------------|
A#|--------------------------------------------|
F#|--------------------------------------------|
C#|-0000000-1-1-0000000-1-1-00000000-1-0-3-0-4-| Repeat 2x
G#|-0000000-1-1-0000000-1-1-00000000-1-0-3-0-4-|
C#|-0000000-1-1-0000000-1-1-00000000-1-0-3-0-4-|

D#|-----------------------------------------------|
A#|-----------------------------------------------|
F#|-----------------------------------------------|  Repeat 2x
C#|-00000-1-1-0-1-1-0-00000-00-00000-00-1-0-3-0-4-|
G#|-00000-1-1-0-1-1-0-00000-00-00000-00-1-0-3-0-4-|
C#|-00000-1-1-0-1-1-0-00000-00-00000-00-1-0-3-0-4-|

   
D#|-----------------------------------------------------|
A#|-----------------------------------------------------|
F#|------------------5/7~-----8\7~----7-7-7-7-7-7-7-7-7-|
C#|-0~------1-0~-----x/x------x\x-----7-7-7-7-7-7-7-7-7-|
G#|-0~------1-0~-----3/5~-----6\5~----5-5-5-5-5-5-5-5-5-|
C#|-0~------1-0~----------------------------------------|

                                                          4th x
D#|-----------------------------------------------------|-------|  
A#|-----------------------------------------------------|-------|
F#|-----------------------------------------------------|-------|   Repeat 4x
C#|-7-7-7-7-7/10-10-10-10-10-10-5-5-5-5-5\3-3-3-3-2-2-2-|-----0~|
G#|-5-5-5-5-5/8--8--8--8--8--8--3-3-3-3-3\1-1-1-1-0-0-0-|-----0~|
C#|-----------------------------------------------------|-----0~|


Добавлено: 07.06.2012
Другие материалы по этой песне:

Страница создана 27.05.2012
http://primanota.ru/hoods/the-king-is-dead-chords.htm
Привет, Гость.
Предлагаем пройти революционный курс по гитаре.
Подарок от PrimaNota.Ru, забирай!