PrimaNota.ru - самый крупный в мире бесплатный архив песенных текстов, аккордов, табулатур и нот


Hoods - Ernie Cortez - таба, видео

Регистрация Запомнить меня
Войти через:  Facebook Google Twitter Vk Yandex Mail.ru

Hoods - Ernie Cortez - таба, видео

Печатать
Просмотров: 144
-----------------------------------------------------------------------------
                             ernie cortez - HOODS
-----------------------------------------------------------------------------
Tabbed by: tyrel
Email: relty7@hotmail.com

intro
e|---------------------------------------------------------------------------|
B|---------------------------------------------------------------------------|
G|---------------------------------------------------------------------------|
D|-77--1010-55-33--1010-55-77------------------------------------------------|
A|-77--1010-55-33--1010-55-77------------------------------------------------|
E|-55---8-8-33-11---8-8-33-55------------------------------------------------|

pre verse
e|---------------------------------------------------------------------------|
B|---------------------------------------------------------------------------|
G|---------------------------------------------------------------------------|
D|-7----7----7---------------------------------------------------------------|
A|-7----7----7----pickscrape-------------------------------------------------|
E|-5----5----5---------------------------------------------------------------|

verse x4
e|---------------------------------------------------------------------------|
B|---------------------------------------------------------------------------|
G|---------------------------------------------------------------------------|
D|-77777777-10101010-5555-33333333-10101010-5555-----------------------------|
A|-77777777-10101010-5555-33333333-10101010-5555-----------------------------|
E|-55555555--8-8-8-8-3333-11111111--8-8-8-8-3333-----------------------------|

chorus x3
e|---------------------------------------------------------------------------|
B|---------------------------------------------------------------------------|
G|---------------------------------------------------------------------------|
D|-77777777-1010101010101010-12121212121212121212121212121212----------------|
A|-77777777-1010101010101010-12121212121212121212121212121212----------------|
E|-55555555--8-8-8-8-8-8-8-8-10101010101010101010101010101010----------------|

chorus ending
e|---------------------------------------------------------------------------|
B|---------------------------------------------------------------------------|
G|---------------------------------------------------------------------------|
D|-77777777-1010101010101010-5555555555555555--------------------------------|
A|-77777777-1010101010101010-5555555555555555--------------------------------|
E|-55555555--8-8-8-8-8-8-8-8-3333333333333333--------------------------------|

pre verse x1
verse x4

ending
e|---------------------------------------------------------------------------|
B|---------------------------------------------------------------------------|
G|---------------------------------------------------------------------------|
D|-7----7----7----7----7-----------------------------------------------------|
A|-7----7----7----7----7-----------------------------------------------------|
E|-5----5----5----5----5-----------------------------------------------------|


http://www.hoodsarmy.com/
Добавлено: 03.06.2012
Вам также может быть интересно:
Другие материалы по этой песне:
  • Аккорды и текст

Страница создана 03.06.2012
http://primanota.ru/hoods/ernie-cortez-chords.htm
Привет, Гость.
Предлагаем пройти революционный курс по гитаре.
Подарок от PrimaNota.Ru, забирай!