PrimaNota.ru - самый крупный в мире бесплатный архив песенных текстов, аккордов, табулатур и нот


Hoods - Coward - таба, видео

Регистрация Запомнить меня
Войти через:  Facebook Google Twitter Vk Yandex Mail.ru

Hoods - Coward - таба, видео

Печатать
Просмотров: 147
Уроки эстрадного вокала в Санкт-Петербурге
~ let ring
. palm mute
in drop d


|----------------------------------------------------------------------------|
|----------------------------------------------------------------------------|
|----------------------------------------------------------------------------|
|-1~--1~--1~--1~-1-1-1-1-1-1-1-1-1-1-1-1-1-1-4-3-2-2-2-2-2-2-2-2-2-2-2-2-2-2-|
|-1~--1~--1~--1~-1-1-1-1-1-1-1-1-1-1-1-1-1-1-4-3-2-2-2-2-2-2-2-2-2-2-2-2-2-2-|
|-1~--1~--1~--1~-1-1-1-1-1-1-1-1-1-1-1-1-1-1-4-3-2-2-2-2-2-2-2-2-2-2-2-2-2-2-|

|---------------------------------|
|---------------------------------|
|---------------------------------|
|-3-4-1-1-1-1-1-1-1-1-1-1-1-1-1-1-|
|-3-4-1-1-1-1-1-1-1-1-1-1-1-1-1-1-|
|-3-4-1-1-1-1-1-1-1-1-1-1-1-1-1-1-|


breakdown
|-------------------------------------------------|
|-------------------------------------------------|
|................................................
|-0-0-0-0-0-0-0-0-0-0-0-0-0-0-0-0-0-0-0-0-0-0-0-0-1-|
|-0-0-0-0-0-0-0-0-0-0-0-0-0-0-0-0-0-0-0-0-0-0-0-0-1-|
|-0-0-0-0-0-0-0-0-0-0-0-0-0-0-0-0-0-0-0-0-0-0-0-0-1-|
Добавлено: 22.02.2012
Другие материалы по этой песне:

Страница создана 22.02.2012
http://primanota.ru/hoods/coward-chords.htm
Привет, Гость.
Предлагаем пройти революционный курс по гитаре.
Подарок от PrimaNota.Ru, забирай!