PrimaNota.ru - самый крупный в мире бесплатный архив песенных текстов, аккордов, табулатур и нот


Hoobastank - Waiting - таба, видео

Регистрация Запомнить меня
Войти через:  Facebook Google Twitter Vk Yandex Mail.ru

Hoobastank - Waiting - таба, видео

Печатать
Просмотров: 129
-------------------------------------------------------------------------------
                             Waiting - Hoobastank
-------------------------------------------------------------------------------
Tabbed by:AlexTommo
Email: alextommo@hotmail.com

Tuning:Standard
Intro/Verse(1)
E|--------------------------------------------------------------------|
B|--22-5-------2---22-5---------22------------------------------------|
G|--22-22222222222222-222222----22-5-55444222000222222222-------------|
D|--22-22222222222222-222222-x2-22-2-22222222222222222222-------------|
A|--00-00000000000000-000000----00-0-00000000000000000000-------------|
E|--------------------------------------------------------------------|

Chorus(1)

E|---------------------------------------------------------------|
B|---------------------------------------------------------------|
G|---------------------------------------------------------------|
D|--5-5-5-5-7-7-7-7-222222222222-x2------------------------------|
A|--3-3-3-3-5-5-5-5-000000000000---------------------------------|
E|---------------------------------------------------------------|

Verse(2)

E|-5-7-5-7-5-7-9-5-5-5-7-5-7-5-7-9-5-5-1-3-5-3-3-5-7-9-10-12-----|
B|---------------------------------------------------------------|
G|---------------------------------------------------------------|
D|---------------------------------------------------------------|
A|---------------------------------------------------------------|
E|---------------------------------------------------------------|

Chorus(2)"Cause I've waited..."

E|---------------------------------------------------------------|
B|---------------------------------------------------------------|
G|--55555557777777777--------------------------------------------|
D|--555555577777777777777777777777777777777----------------------|
A|--333333355555555557777777777777777777777-x2-------------------|
E|-------------------5555555555555555555555----------------------|

"And I knooow..."

E|---------------------------------------------------------------|
B|---------------------------------------------------------------|
G|--55555557777777777--------------------------------------------|
D|--555555577777777777777777777755555555555----------------------|
A|--333333355555555557777777777755555555555----------------------|
E|-------------------5555555555533333333333----------------------|

"So I'm not..."

E|---------------------------------------------------------------|
B|---------------------------------------------------------------|
G|--55555557777777777--------------------------------------------|
D|--555555577777777777777777777777777777777----------------------|
A|--333333355555555557777777777777777777777----------------------|
E|-------------------5555555555555555555555----------------------|

Bridge

"NO!"

E|---------------------------------------------------------------|
B|---------------------------------------------------------------|
G|---------------------------------------------------------------|
D|--777-555-777-555-777-555-777-555------------------------------|
A|--777-555-777-555-777-555-777-555------------------------------|
E|--555-333-555-333-555-333-555-333------------------------------|

E|---------------------------------------------------------------|
B|---------------------------------------------------------------|
G|---------------------------------------------------------------|
D|--10-10-10-10-9-9-9-9-7-7-7-5-5-5-5-7-7-7-5-5-5-7-7-7-7-7------|
A|---------------------------------------------------------------|
E|---------------------------------------------------------------|

Outro

"No I'm not gonna waste..."

E|---------------------------------------------------------------|
B|---------------------------------------------------------------|
G|--55555557777777777--------------------------------------------|
D|--55555557777777777--------------------------------------------|
A|--33333335555555555--------------------------------------------|
E|---------------------------------------------------------------|

"Anymore"

E|---------------------------------------------------------------|
B|-------------------2-2-5-------------------2-2-----------------|
G|--2-2-2-2-2-2-2-2-22-2-2-2-2-2-2-2-2-2-2-2-2-2-----------------|
D|--2-2-2-2-2-2-2-2-22-2-2-2-2-2-2-2-2-2-2-2-2-2-----------------|
A|--0-0-0-0-0-0-0-0-00-0-0-0-0-0-0-0-0-0-0-0-0-0-----------------|
E|---------------------------------------------------------------|



Intro
Verse(1)
Chorus(1)
Verse(1)
Verse(2)
Chorus(2)
Bridge
Chorus(2)

Hope you like it







Добавлено: 04.04.2012
Другие материалы по этой песне:
  • Аккорды и текст

Страница создана 04.04.2012
http://primanota.ru/hoobastank/waiting-chords.htm
Привет, Гость.
Предлагаем пройти революционный курс по гитаре.
Подарок от PrimaNota.Ru, забирай!