PrimaNota.ru - самый крупный в мире бесплатный архив песенных текстов, аккордов, табулатур и нот


Hoobastank - Sick Of Hanging On - аккорды и текст, видео

Регистрация Запомнить меня
Войти через:  Facebook Google Twitter Vk Yandex Mail.ru

Hoobastank - Sick Of Hanging On - аккорды и текст, видео

Печатать
Просмотров: 99
Sick Of Hanging On
Hoobastank
Song :Sick of Hanging On
Band : Hoobastank
Album : For(n)ever
Year : 2009

Chords Used : 

Dm : x57765
Fm : x8101098
Ebm : x68876
Bb : 688766
A : 577655
G5 : 355xxx
A5 : 577xxx
Bb5 : 688xxx
Ab5 : 466xxx

I'm not sure for the Break, and I can't find anything for verses... But Chorus are correct !

Intro :

e|-10----12-----13-----15--13--15----16----22--|
B|---------------------------------------------|
G|---------------------------------------------|
D|---------------------------------------------|
A|---------------------------------------------|
E|---------------------------------------------|

Dm - Fm - Dm - Ebm x2

VERSE 1 :
First you tell me it's over
Then you try to get me to stay
I'm so confused, what am I gonna do?
You pull me in so you can push me away?

VERSE 2 :
The minute you tell me you need me
But it's right before you walk out the door
You're hot then you're cold and the game's getting old
Who am I supposed to be anymore?

CHORUS :
Dm                 Fm  Dm                   Ebm
I can't wait forever to know if we're together
Bb                   A
  I'm sick of hanging on
Dm                   Fm  Dm                     Ebm
Anything sounds better than waiting on you forever
Bb                   A
  I'm sick of hanging on, sick of hanging on

e|-------------------------------------------|
B|-------------------------------------------|
G|-------------------------------------------|
D|-------------------------------------------|
A|-5--------------8--5----------------8--5---|
E|----1--3--5--8----------1-3-5-6-7-8--------|
(you can play this at Verse3)

VERSE 3 :
Choose 'cause you can't have it both ways
Choose so I know what to do
'Cause I can't believe that's how you're going to be
You've had your cake and now you're eating it too

CHORUS :
Dm                 Fm  Dm                   Ebm
I can't wait forever to know if we're together
Bb                   A
  I'm sick of hanging on
Dm                   Fm   Dm                    Ebm
Anything sounds better than waiting on you forever
Bb                   A                    G5
  I'm sick of hanging on, sick of hanging on

BREAK
               A5           Bb5
You need to make up your mind
                         F5
I need to know where I stand
                     Ab5
This is your only chance

e|----------------------------------------|
B|----------------------------------------|
G|----------------------------------------|
D|----------------------------------------| x2
A|-5--------------8--5----------------8---|
E|----1--3--5--8----------1-3-5-6-7-8-----|

   Dm                        Fm
   Dm                        Ebm
e|-----------------------------------------|
B|-----------------------------------------|
G|-7--------------10--7----------------10--|
D|----3--5--7--10---------3-5-7-8-9-10-----| x4
A|-----------------------------------------|
E|-----------------------------------------|

Bb                A
I'm sick of hanging on
Bb                A
I'm sick of hanging on
Bb           A
Let me go or I'll let go

Dm (hold)
I can't wait forever to know if we're together
Bb                   A
  I'm sick of hanging on
Dm                   Fm   Dm                    Ebm
Anything sounds better than waiting on you forever
Bb                   A                       Dm
  I'm sick of hanging on, sick of hanging on
      Fm        Dm      Ebm        Dm    Fm
Sick of hanging on, sick of hanging on

OUTRO : Fm Ebm
Добавлено: 20.04.2012
Другие материалы по этой песне:
  • Аккорды и текст

Страница создана 20.04.2012
http://primanota.ru/hoobastank/sick-of-hanging-on-chords.htm
Привет, Гость.
Предлагаем пройти революционный курс по гитаре.
Подарок от PrimaNota.Ru, забирай!