PrimaNota.ru - самый крупный в мире бесплатный архив песенных текстов, аккордов, табулатур и нот


Hoobastank - Never There - аккорды и текст, таба, бас-таба, видео

Регистрация Запомнить меня
Войти через:  Facebook Google Twitter Vk Yandex Mail.ru

Hoobastank - Never There - аккорды и текст, таба, бас-таба, видео

Печатать
Просмотров: 173
Never There
Hoobastank
-------------------------------------------------------------------------------
			     NEVER THERE - Hoobastank
-------------------------------------------------------------------------------
Tabbed by: Alex R

Tuning: Dropped D

Intro/Verse: Palm mute notes on 6th string
e|----------------------------------------|----------------------------------------|
B|----------------------------------------|----------------------------------------|
G|----------------------------------------|----------------------------------------|
D|------12------10------------------------|------12------10------------------------|
A|----------------------12------10------9-|----------------------12------10------9-|
D|-0-12----0-10----0-10----0-10----0-12---|-0-12----0-10----0-10----0-10----0-12---|

e|-----------------------------------|-----------------------------------------|
B|-----------------------------------|-----------------------------------------|
G|-----------------------------------|-----------------------------------------|
D|-----------------------------------|------12------10------13------12------10-|
A|-----10-----10-----9-----9------12-|-----------------------------------------|
D|-0-8----0-8----0-7---0-7---0-10----|-0-12----0-10----0-13----0-12----0-10----|



Intro/Chorus                                                          
e|--------------------------------------|--------------------------------------|
B|--------------------------------------|--------------------------------------|
G|-----------------------------------12-|-----------------------------------12-|
D|-0-12-10-0-10-12-0-9-10-0-10-9--------|-0-12-10-0-10-12-0-9-10-0-10-9--------|
A|-0-12-10-0-10-12-0-9-10-0-10-9-----10-|-0-12-10-0-10-12-0-9-10-0-10-9-----10-|
D|-0-12-10-0-10-12-0-9-10-0-10-9-0-0----|-0-12-10-0-10-12-0-9-10-0-10-9-0-0----|

                                                                             
e|----------------------------------------|--------------------------------------|
B|----------------------------------------|--------------------------------------|
G|----------------------------------------|-----------------------------------12-|
D|-10---10---10---10---10/12-12---12---12-|-0-12-10-0-10-12-0-9-10-0-10-9--------|
A|-8----8----8----8----8-/10-10---10---10-|-0-12-10-0-10-12-0-9-10-0-10-9-----10-|
D|-8----8----8----8----8-/10-10---10---10-|-0-12-10-0-10-12-0-9-10-0-10-9-0-0----|



End of Verse
e|-----------------------------------|---------------------------------|
B|-----------------------------------|---------------------------------|
G|-----------------------------------|---------------------------------|
D|-----------------------------------|------12------10------13------12-|
A|-----10-----10-----9-----9------12-|---------------------------------|
D|-0-8----0-8----0-7---0-7---0-10----|-0-12----0-10----0-13----0-12----|

Add a digital tremolo effect.
e|----|
B|----|
G|----|
D|-10-|
A|----|
D|-10-|



End of chorus
e|----------------------------------------|-----------------------------------|
B|----------------------------------------|-----------------------------------|
G|----------------------------------------|-----------------------------------|
D|-10---10---10---10---10/12-12---12---12-|-8---8---8---8---8/10-10---10---10-|
A|-8----8----8----8----8-/10-10---10---10-|-6---6---6---6---6/8—-8----8----8--|
D|-8----8----8----8----8-/10-10---10---10-|-6---6---6---6---6/8--8----8----8--|



Bridge
e|---------------------------------------|
B|---------------------------------------|
G|---------------------------------------|
D|-0-10-12-0-13-12-0-10-12-0-13-12-0-3-5-| x4
A|-0-10-12-0-13-12-0-10-12-0-13-12-0-3-5-|
D|-0-10-12-0-13-12-0-10-12-0-13-12-0-3-5-|

e|---------------------------------|--------------------------------------|
B|---------------------------------|--------------------------------------|
G|---------------------------------|--------------------------------------|
D|---------------------------------|--------------------------------------|
A|-----10-----10-----9-----9-----9-|------12------12-----10-----10-----10-|
D|-0-8----0-8----0-7---0-7---0-7---|-0-10----0-10----0-9----0-9----0-9----|

                                        x2
e|---------------------------------|-------------------------------------|
B|---------------------------------|-------------------------------------|
G|---------------------------------|-------------------------------------|
D|---------------------------------|-0-10-12-0-13-12-0-10-12-0-13-12-0-3-|
A|-----10-----10-----9-----9-----9-|-0-10-12-0-13-12-0-10-12-0-13-12-0-3-|
D|-0-8----0-8----0-7---0-7---0-7---|-0-10-12-0-13-12-0-10-12-0-13-12-0-3-|

e|---------------------------------------|
B|---------------------------------------|
G|---------------------------------------|
D|-0-10-12-0-13-12-0-10-12-0-13-12-0-3-5-| x3
A|-0-10-12-0-13-12-0-10-12-0-13-12-0-3-5-|
D|-0-10-12-0-13-12-0-10-12-0-13-12-0-3-5-|

(Song ends with this riff)
e|-----------------------------------------|
B|-----------------------------------------|
G|-----------------------------------------|
D|------12------10------13------12------10-|
A|-----------------------------------------|
D|-0-12----0-10----0-13----0-12----0-10----|

| /  slide up
|   slide down
| h  hammer-on
| p  pull-off
| ~  vibrato
| +  harmonic
| x  Mute note
| pm Palm mute
===============================================================================
Добавлено: 21.03.2012
Другие материалы по этой песне:

Страница создана 24.02.2012
http://primanota.ru/hoobastank/never-there-chords.htm
Привет, Гость.
Предлагаем пройти революционный курс по гитаре.
Подарок от PrimaNota.Ru, забирай!