PrimaNota.ru - самый крупный в мире бесплатный архив песенных текстов, аккордов, табулатур и нот


Hoobastank - Finally Awake - таба, видео

Регистрация Запомнить меня
Войти через:  Facebook Google Twitter Vk Yandex Mail.ru

Hoobastank - Finally Awake - таба, видео

Печатать
Просмотров: 84
-------------------------------------------------------------------------------
			     Finally Awake – Hoobastank
-------------------------------------------------------------------------------
Tabbed by: NickClemett
Email:

Tuning:Drop D
				Repeat 3 Times Then...
e|--------------------------------|-------------------------------------------|
B|--------------------------------|-------------------------------------------|
G|--------------------------------|-------------------------------------------|
D|-0-0---0-0---0-0---0-0----------|-0-0---0-0---0-0---0-0hold-9-slide-1-------|
A|-0-0---0-0---0-0---0-0----------|-0-0---0-0---0-0---0-0hold-9-slide-1-------|
D|-0-0---0-0---0-0---0-0----------|-0-0---0-0---0-0---0-0hold-9-slide-1-------|
			Repeat 4 times, on 4th time just slide up fret board
e|------------------------------------|-------------------------------------------------|
B|------------------------------------|-------------------------------------------------|
G|-5/7---7/8---8/10---10/11—(Palm)----|--5/7---7/8---8/10---10/11~~-11/15-15------------|
D|--------------------------0-0-0-0-0-|-------------------------------------------------|
A|-3/5-x-5/6-x-6/8--x-8/ 9--0-0-0-0-0-|--3/5-x-5/6-x-6/8--x-8/ 9~~~--9/13-13------------|
D|-----0-----0------0-------0-0-0-0-0-|------0-----0------0-----------------------------|

e|----------------------------------------------------------------------|
B|----------------------------------------------------------------------|
G|-7-7-7-7-7-7-7-7-7-7-7-7-7-7-7-7/1111111111111111111111111111111111/--|
D|----------------------------------------------------------------------|
A|-5-5-5-5-5-5-5-5-5-5-5-5-5-5-5-5/9-9-9-9-9-9-9-9-9-9-9-9-9-9-9-9-9/---|
D|----------------------------------------------------------------------|

e|---------------------------------------------------------------------------------|
B|---------------------------------------------------------------------------------|
G|-5-5-5-5-5-5-5-5-5-5-5-5-5-5-5-5/14-14-14-14-14-14-14/17-17-17/19-19-19-19-19-19-|
D|---------------------------------------------------------------------------------|
A|-3-3-3-3-3-3-3-3-3-3-3-3-3-3-3-3/12-12-12-12-12-12-12/15-15-15/17-17-17-17-17-17-|
D|---------------------------------------------------------------------------------|

e|-------------------------------------------------------------------------------------|
B|-------------------------------------------------------------------------------------|
G|-------------12-12--------------12-12-12-----------------11-11--------------11-11-11-|
D|-10h12-10h12--------10h12-10h12--------------10h12-10h12--------10h12-10h12----------|
A|-------------------------------------------------------------------------------------|
D|-------------------------------------------------------------------------------------|

e|-------------------------------------------------------------------------------------|
B|-------------------------------------------------------------------------------------|
G|-------------10-10--------------10-10-10-----------------12-12--------------12-12-12-|
D|-10h12-10h12--------10h12-10h12--------------10h12-10h12--------10h12-10h12----------|
A|-------------------------------------------------------------------------------------|
D|-------------------------------------------------------------------------------------|

e|----------------------------------------------------------------------------------------------|
B|----------------------------------------------------------------------------------------------|
G|---------------------------------------------------------7-7-7-7-7-7-7-7/11111111/5-5-5-5-5-5-|
D|--8-8-8-8-8-8-8-8-8-8-8-8-8-8-10-10-10-10-10-10-10-10-10--------------------------------------|
A|--8-8-8-8-8-8-8-8-8-8-8-8-8-8-10-10-10-10-10-10-10-10-10-5-5-5-5-5-5-5-5/9-9-9-9//3-3-3-3-3-3-|
D|--8-8-8-8-8-8-8-8-8-8-8-8-8-8-10-10-10-10-10-10-10-10-10--------------------------------------|

e|----------------------------------------------------------------------------------------------|
B|----------------------------------------------------------------------------------------------|
G|---------------------------------------------------------1414141414141414/17171717/1919191919-|
D|--8-8-8-8-8-8-8-8-8-8-8-8-8-8-10-10-10-10-10-10-10-10-10--------------------------------------|
A|--8-8-8-8-8-8-8-8-8-8-8-8-8-8-10-10-10-10-10-10-10-10-10-1212121212121212/15151515/1717171717-|
D|--8-8-8-8-8-8-8-8-8-8-8-8-8-8-10-10-10-10-10-10-10-10-10--------------------------------------|

| /  slide up
| \  slide down
| h  hammer-on
| p  pull-off
| ~  vibrato
| +  harmonic
| x  Mute note
===============================================================================
Finally Awake was a bonus song on Every Man for himself. No-one tabbed this yet so I 
I would give it a go. Please rate it and comment.
Will put more up soon if this is any good.

Clemo
Добавлено: 18.06.2013
Другие материалы по этой песне:
  • Аккорды и текст

Страница создана 18.06.2013
http://primanota.ru/hoobastank/finally-awake-chords.htm
Привет, Гость.
Предлагаем пройти революционный курс по гитаре.
Подарок от PrimaNota.Ru, забирай!