PrimaNota.ru - самый крупный в мире бесплатный архив песенных текстов, аккордов, табулатур и нот


Hoobastank - Face The Music - текст песни, таба, видео

Регистрация Запомнить меня
Войти через:  Facebook Google Twitter Vk Yandex Mail.ru

Hoobastank - Face The Music - текст песни, таба, видео

Печатать
Просмотров: 102
Hoobastank - Face The Music
Tabbed by - Alex Tomlinson
Email - alextommo@hotmail.com

Intro/Verse

E-----2-4-5-4-2-4--------2-4-5----------------|
B---------------------------------3-5-5-------|
G#-----------------3------------------3-------|
E---2--------------0---0----------------------|
B-------------------------------3-------------|
E---------------------------------------------|

Cont. (0:41)

E-----|--------|--------|--------|---------|----------|
B-----|--------|--------|--------|---------|----------|
G#----|--------|--------|--------|---------|-15-------|
E---0-|-4-(x8)-|-5-(x8)-|-7-(x4)-|-10-(x4)-|-12-(x8)--|
B-----|--------|--------|--------|---------|----------|
E-----|--------|--------|--------|---------|----------|

Chorus

E--------------------------------------------------------|
B--------------------------------------------------------|
G#-------------------------------------------------------|
E--2-22--22-2-2-0-0--0-7-77--7-10-10-10-12-12-12--0~-----|
B--2-22--22-2-2-0-0--0-7-77--7-10-10-10-12-12-12--0~-----|
E--2-22--22-2-2-0-0--0-7-77--7-10-10-10-12-12-12--0~-----|

Cont. (0:55)
E-------------------------|
B-------------------------|
G#------------------------|
E--5-55-5-5-5-5-7-7-7-7---|
B--3-33-3-3-3-5-5-5-5-5---|
E-------------------------|

2nd Chorus Cont. (2:12)
"Cause your true colours..."
E---------------|----------|
B---------------|----------|
G#--------------|----------|
E--5-55-5-5-5-7-|---(X3)---|
B--3-33-3-3-5-5-|----------|
E---------------|----------|

Bridge (2:22)
"Take a look at what you've done"
E--------------------------------------7-7-7-7-5-5-|
B--------------------------------------7-7-7-7-5-5-|
G#-------------------------------------------------|
E--2-0-2-5-0-2---2-0-5-0-2-0-2---5-0-2-------------|
B--2-0-2-5-0-2---2-0-5-0-2-0-2---5-0-2-------------|
E--2-0-2-5-0-2---2-0-5-0-2-0-2---5-0-2-------------|

Solo (2:36) Has some kinda effects that I'm not sure of.

E---14-16-----------------|
B---------16--------------|
G#------------------------|
E-------------------------|
B-------------------------|
E-------------------------|

Cont. (2:42)
E-----------------------------------------------------------------12-12-12-12-12-12-|
B-----------------------------------------------------------------------------------|
G#----------------------------------------------------------------------------------|
E-----------------------------------------------------------------------------------|
B-7-7-9-9-10-10-9-9-10-10-12-12-10-10-12-12-14-14-12-12-10-10-9---------------------|
E---------------------------------------------------------------12------------------|

Cont. (2:49

E--14~-14~-16~------------|
B--------------16---------|
G#------------------------|
E-------------------------|
B-------------------------|
E-------------------------|

Cont. (2:55)
E---17-16-14-12-9-7-5-0--12~-|
G#---------------------------|
E----------------------------|
B----------------------------|
E----------------------------|

That's the best I could do.
Добавлено: 01.09.2013
Другие материалы по этой песне:
  • Аккорды и текст

Страница создана 01.09.2013
http://primanota.ru/hoobastank/face-the-music-chords.htm
Привет, Гость.
Предлагаем пройти революционный курс по гитаре.
Подарок от PrimaNota.Ru, забирай!