PrimaNota.ru - самый крупный в мире бесплатный архив песенных текстов, аккордов, табулатур и нот


Hoobastank - Born To Lead - текст песни, таба, бас-таба, видео

Регистрация Запомнить меня
Войти через:  Facebook Google Twitter Vk Yandex Mail.ru

Hoobastank - Born To Lead - текст песни, таба, бас-таба, видео

Печатать
Просмотров: 114
INTRO/PRE-CHORUS:
e|----------------------------------------|
B|----------------------------------------|
G|----------------------------------------|
D|----------------------------------------|
A|------5-3-5---5-5-3-5---5-3-5---5-5-3-5-|
D|----0-------0---------3-------0---------|

e|----------------------------------------|
B|----------------------------------------|
G|----------------------------------------|
D|----------------------------1-----------|
A|------5-3-5---5-5-3-5---1-3----5-5-3-5--|
D|----0-------0---------1-------0---------|

CHORUS:
e|------------------------|
B|------------------------|
G|---------5--------------|
D|----0----5----5----1----|
A|----0----3----5----1----|
D|----0---------5----1----|

SOLO:
e|-----------------------|
B|-----------------------|
G|-----------------------|
D|----3-0---3-5-6-xxxxxx-|
A|----3-0---3-5-6-xxxxxx-|
D|----3-0---3-5-6-xxxxxx-|

e|-----------------------|
B|-----------------------|
G|------------------5555-|
D|----3-0---3-5-6-xx5555-|
A|----3-0---3-5-6-xx3333-|
D|----3-0---3-5-6-xx-----|

e|-----------------------|
B|-----------------------|
G|-----------------------|
D|----3-0---3-5-6-xxxxxx-|
A|----3-0---3-5-6-xxxxxx-|
D|----3-0---3-5-6-xxxxxx-|

e|-----------------------|
B|-----------------------|
G|------------------7777-|
D|----3-0---3-5-6-xx7777-|
A|----3-0---3-5-6-xx5555-|
D|----3-0---3-5-6-xx-----|

CHORUS AFTER SOLO:
e|---------------------------------------|
B|---------------------------------------|
G|---------------------------------------|
D|----55555555-6666666-88888888-66666666-|
A|----55555555-6666666-88888888-66666666-|
D|----55555555-6666666-88888888-66666666-|

e|---------------------------------------|
B|---------------------------------------|
G|---------------------------------------|
D|----55555555-6666666-88888888-99999999-|
A|----55555555-6666666-88888888-99999999-|
D|----55555555-6666666-88888888-99999999-|

Добавлено: 20.07.2013
Другие материалы по этой песне:
  • Аккорды и текст

Страница создана 27.03.2012
http://primanota.ru/hoobastank/born-to-lead-chords.htm
Привет, Гость.
Предлагаем пройти революционный курс по гитаре.
Подарок от PrimaNota.Ru, забирай!