PrimaNota.ru - самый крупный в мире бесплатный архив песенных текстов, аккордов, табулатур и нот


Honor By August - There You Were - таба, видео

Регистрация Запомнить меня
Войти через:  Facebook Google Twitter Vk Yandex Mail.ru

Honor By August - There You Were - таба, видео

Печатать
Просмотров: 92
Honor By August – There You Were
http://www.honorbyaugust.com/

I'm not sure about the solo and the bridge, but the rest should be correct

Capo on 2nd fret
E|---------------------------------------------------------|
B|----3------3------3------3-------3-----3-------3------3--|
G|---2-2----2-2----2-2----2-2-----2-2---2-2-----2-2----2-2-|
D|-0-------------------------------------------------------|
A|--------2------0-----------------------------------0-----|
E|----------------------2-------3------2------3------------| x9

  D5     A5    G5     Bm5     A5
|--------------------------------------|
|--------------------------------------|
|-7------------------------------------|
|-7------7-----5-------9------7--------|
|-5-x12--7-----5-------9------7--------|
|--------5-x4--3-x16---7-x16--5-x13----| 
                              ▲ hold the last strum
                              
  D5     A5    G5     Bm5     A5
|--------------------------------------|
|--------------------------------------|
|-7------------------------------------|
|-7------7-----5-------9------7--------|
|-5-x12--7-----5-------9------7--------|
|--------5-x4--3-x16---7-x16--5-hold---| 


|---------------------------------------------------------|
|----3------3------3------3-------3-----3-------3------3--|
|---2-2----2-2----2-2----2-2-----2-2---2-2-----2-2----2-2-|
|-0-------------------------------------------------------|
|--------2------0-----------------------------------0-----|
|----------------------2-------3------2------3------------| x6

  D5     A5    G5     Bm5     A5
|--------------------------------------|
|--------------------------------------|
|-7------------------------------------|
|-7------7-----5-------9------7--------|
|-5-x12--7-----5-------9------7--------|
|--------5-x4--3-x16---7-x16--5-x13----| 
                              ▲ hold the last strum

  D5     A5    G5     Bm5     A5
|--------------------------------------|
|--------------------------------------|
|-7------------------------------------|
|-7------7-----5-------9------7--------|
|-5-x12--7-----5-------9------7--------|
|--------5-x4--3-x16---7-x16--5-x16----| 


|----5----5----5---2---2-2-0-0-0-0~------|
|--3----3----3---3-----------------------|
|----------------------------------------|
|----------------------------------------|
|----------------------------------------|
|-solo-----------------------------------|

|----0----0----0---0h2-2-2-2-2--2h5-5-5-5----|
|--2----2----2-------------------------------|
|--------------------------------------------|
|--------------------------------------------|
|--------------------------------------------|
|--------------------------------------------|



  Bm
|---------2--------------2-------------------|
|---------3--------------3-------------------|
|-4-4-4-4-4--4-4-4-4-4-4-4---4-4-4-4-4-4-4-4-|
|-4-4-4-4-4--4-4-4-4-4-4-4---4-4-4-4-4-4-4-4-|
|-2-2-2-2-2--2-2-2-2-2-2-2---2-2-2-2-2-2-2-2-|
|--------------------------------------------|
  Tonight we will be together
  G
|---------------------------------------------------|
|---------3------3-------------3--3----------3------|
|---------4------4-------------4--4----------4------|
|-5-5-5-5-5--5-5-5---5-5-5-5-5-5--5--5-5-5-5-5--5-5-|
|-5-5-5-5-5--5-5-5---5-5-5-5-5-5--5--5-5-5-5-5--5-5-|
|-3-3-3-3-3--3-3-3---3-3-3-3-3-3--3--3-3-3-3-3--3-3-|
  Tonight make this last forever
  Bm
|---------2--2--2----------2--2--2----2--2-|
|---------3--3--3----------3--3--3----3--3-|
|-4-4-4-4-4--4--4--4-4-4-4-4--4--4--4-4--4-|
|-4-4-4-4-4--4--4--4-4-4-4-4--4--4--4-4--4-|
|-2-2-2-2-2--2--2--2-2-2-2-2--2--2--2-2--2-|
|------------------------------------------|
 Tonight, come on a little
  A
|-------------------------|
|-5-----------------------|
|-6-----------------------|
|-7--7-7-7-7-7-7-7-7------|
|-7--7-7-7-7-7-7-7-7------|
|-5--5-5-5-5-5-5-5-5------|
  closer


|---------------------------|
|----3------3------3--------|
|---2-2----2-2----2-2----2--|
|-0-------------------------|
|--------2------0-----------|
|----------------------2----|



  D5     A5    G5     Bm5     A5
|--------------------------------------|
|--------------------------------------|
|-7------------------------------------|
|-7------7-----5-------9------7--------|
|-5-x12--7-----5-------9------7--------|
|--------5-x4--3-x16---7-x16--5-x13----| 
                              ▲ hold the last strum
                              
  D5     A5    G5     Bm5     A5
|--------------------------------------|
|--------------------------------------|
|-7------------------------------------|
|-7------7-----5-------9------7--------|
|-5-x12--7-----5-------9------7--------|
|--------5-x4--3-x16---7-x16--5-hold---| 

|---------------------------------------------------------|
|----3------3------3------3-------3-----3-------3------3--|
|---2-2----2-2----2-2----2-2-----2-2---2-2-----2-2----2-2-|
|-0-------------------------------------------------------|
|--------2------0-----------------------------------0-----|
|----------------------2-------3------2------3------------| x4

|------------------------------------------------------|
|----3------3------3------3-------3-----3-------3---3~-|
|---2-2----2-2----2-2----2-2-----2-2---2-2-----2--—-2~-|
|-0-------------------------------------------------0~-|
|--------2------0--------------------------------------|
|----------------------2-------3------2------3---------|

Добавлено: 02.06.2012
Другие материалы по этой песне:
  • Аккорды и текст

Страница создана 02.06.2012
http://primanota.ru/honor-by-august/there-you-were-chords.htm
Привет, Гость.
Предлагаем пройти революционный курс по гитаре.
Подарок от PrimaNota.Ru, забирай!