PrimaNota.ru - самый крупный в мире бесплатный архив песенных текстов, аккордов, табулатур и нот


Honeymoon Suite - New Girl Now - аккорды и текст, таба, видео

Регистрация Запомнить меня
Войти через:  Facebook Google Twitter Vk Yandex Mail.ru

Honeymoon Suite - New Girl Now - аккорды и текст, таба, видео

Печатать
Просмотров: 125
New Girl Now
Honeymoon Suite
NEW GIRL NOW - Honeymoon Suite

INTRO:

    A        E                           A  (2x)
 E -------|------------------|------------------|
 B -------|o-----------------|-----------------o|
 G -2-2---|--1-------1-------|-1-----1-x-2-2----|
 D -2-2---|--2-------2-------|-2-----2-x-2-2----|
 A -0-0---|o-2-------2-------|-2-----2-x-0-0---o|
 E -----3-|--0-------0-------|-0-----0-------3--|

    E                       D                            (2/4)
 E -----0-------0---|-----------------|-----------------|---------|
 B -----0-------0---|-------3-=-------|-=-------=-------|---------|
 G -1-------1-------|-1-----2-=-------|-=-------=-------|---------|
 D -2-------2-------|-2-----0-=-------|-=-------=-------|---------|
 A -2-------2-------|-2---------------|-----------------|---------|
 E -0-------0-------|-0---------------|-----------------|---------|
                                                         Hot summer
1ST VERSE:

     E       A         D       A    (4x)  E 
 E|------------------|------------------|-----------------|
 B|o---------2-----2-|-3-----3-2---2---o|-----------------|
 G|--1-----1-2-----2-|-2-----2-2---2----|-9-9-9-9-9-------|
 D|--2-----2-2-----2-|-0-----0-2---2----|-9-9-9-9-9-------|
 A|o-2-----2---------|-----------------o|-7-7-7-7-7-------|
 E|------------------|------------------|-----------------|

1. night,            storm clouds in the 
2. air,             My eyes are a little 
3. heavy,             I'm feeling in the 
4. past tense, I'm hardly aware

PRE-CHORUS 1:

    D       A         E                 D       A         E 
 E -----------------|-----------------|-----------------|---------4~~-----|
 B -3-----3---------|-----------------|-3-----3---------|---------5~~-----|
 G -2-----2-2-----2-|-----------------|-2-----2-2-----2-|-----2/4-4~~-----|
 D -0-----0-2-----2-|-2-----2-2-----2-|-0-----0-2-----2-|-2---------------|
 A ---------0-----0-|-2-----2-2-----2-|---------0-----0-|-2---------------|
 E -----------------|-0-----0-0-----0-|-----------------|-0---------------|
   I don't want you on the phone, Don't you play good girl with me    

    D       A         E       D           A 
 E -----------------|-----------------|---------|
 B -3-----3---------|---------3-------|---------|
 G -2-----2-2-----2-|---------2-------|---2-2---|
 D -0-----0-2-----2-|-2-----2-0-------|---2-2---|
 A ---------0-----0-|-2-----2---------|---0-0---|
 E -----------------|-0-----0---------|-------3-|
 
   Why must I always say it again?       

A       E
I got a new girl now,  
A       E            
I got a new girl now, 
A       E                      D
I got a new girl now & she's a lot like you


    
I tried to wash my
   
    E       A         D       A    (4x)            
1.  face,                         But my 
2.  head fell too low,        I tried to 
3.  bury myself,                  But my 
                                   E
4.  mind wouldn't stay at home


PRE-CHORUS 2:   (played same as Pre-Chorus 1)

D       A              E
I don't care if you're sitting at home
D          A           E
Somebody's broken into me
D          A      E       D
Why must I always say it again?

A       E
I got a new girl now,  
A       E            
I got a new girl now, 
A       E                      D               D
I got a new girl now & she's a lot like you, a lot like you,

    D                                   A       E 
 E -----------------|-----------------|-----------------|-----------------|
 B -3-=-------------|-3-3-3-3---3-3---|-----------------|-----------------|
 G -2-=-------------|-2-2-2-2---2-2---|-2---------------|------6=/7~------|
 D -0-=-------------|-0-0-0-0---0-0---|-2-------2-=-----|------5=/6~------|
 A -----------------|-----------------|-0-------2-=-----|-----------------|
 E -----------------|-----------------|-----3~--0-=-----|-----------------|
   A lot like you,             Just like you!              (free time)

Добавлено: 11.06.2015
Вам также может быть интересно:
Другие материалы по этой песне:

Страница создана 09.04.2012
http://primanota.ru/honeymoon-suite/new-girl-now-chords.htm
Привет, Гость.
Предлагаем пройти революционный курс по гитаре.
Подарок от PrimaNota.Ru, забирай!