PrimaNota.ru - самый крупный в мире бесплатный архив песенных текстов, аккордов, табулатур и нот


Honest Bob And The Factory-to-dealer Incentives - Hey - таба, видео

Регистрация Запомнить меня
Войти через:  Facebook Google Twitter Vk Yandex Mail.ru

Honest Bob And The Factory-to-dealer Incentives - Hey - таба, видео

Печатать
Просмотров: 105
Уроки эстрадного вокала в Санкт-Петербурге
This band features in both the Guitar Hero games. This songs in the first one.

INTRO

E |----------------|----------------|----------------|----------------|
B |----------------|----------------|----------------|----------------|
G |----------------|----------------|----------------|----------------|
D |----------------|----------------|----------------|----------------|
A |----------7-4---|----------7-4---|----------7-4---|----------7-4---|
E |0---4-0-5-----7-|0---4-0-5-----7-|0---4-0-5-----7-|0---4-0-5-----7-| X2

VERSE

E |----------------|----------------|----------------|----------------|
B |----------------|----------------|----------------|----------------|
G |----------------|----------------|----------------|----------------|
D |----------------|----------------|----------------|----------------|
A |----------7-4---|----------7-4---|----------7-4---|----------7-4---|
E |0---4-0-5-----7-|0---4-0-5-----7-|0---4-0-5-----7-|0---4-0-5-----7-|

E |----------------|----------------|----------------|----------------|
B |----------------|----------------|----------------|----------------|
G |----------------|----------------|----------------|----------------|
D |----------------|----------------|----------------|----------------|
A |----------7-4---|----------7-4---|----------7-4---|----------7-4---|
E |0---4-0-5-----4-|7---7-4-5-----7-|0---4-0-5-----7-|0---4-0-5-----7-|

E |----------------|----------------|----------------|----------------|
B |----------------|----------------|----------------|----------------|
G |----------------|----------------|----------------|----------------|
D |----------------|----------------|----------------|----------------|
A |----------7-4---|----------7-4---|----------7-4---|----------7-4---|
E |0---4-0-5-----7-|0---4-0-5-----7-|0---4-0-5-----7-|0---4-0-5-----7-|

E |----------------|----------------|----------------|----------------|
B |----------------|----------------|----------------|----------------|
G |----------------|----------------|----------------|----------------|
D |----------------|----------------|----------------|--------2-1-----|
A |----------7-4---|----------7-4---|----------7-4---|------2-----2-0-|
E |0---4-0-5-----4-|7---7-4-5-----7-|0---4-0-5-----7-|0---4-----------|

CHORUS

(These notes should all be held with slides in between)

E |----------------|----------------|----------------|----------------|
B |----------------|----------------|----------------|----------------|
G |6-----------6---|9-----------9---|11----------11--|9-----9---8-8-6-|
D |----------------|----------------|----------------|----------------|
A |4-----------4---|7-----------7---|9-----------9---|7-----7---6-6-4-|
E |----------------|----------------|----------------|----------------|

E |----------------|----------------|----------------|----------------|
B |----------------|----------------|----------------|----------------|
G |6-----------6---|9-----------9---|1111111111111111|13131313141414--|
D |----------------|----------------|----------------|----------------|
A |4-----------4---|7-----------7---|9-9-9-9-9-9-9-9-|11111111121212--|
E |----------------|----------------|----------------|----------------|

CODA

E |----------------|----------------|----------------|--------|
B |----------------|----------------|----------------|--------|
G |----------------|----------------|----------------|--------|
D |----------1---2-|--1-------------|------2---------|----2---|
A |4-------4-------|------4---2-----|----2-----------|--1-----|
E |----------------|----------------|0-4-------0---1-|2-------| X6

E |----------------|----------------|----------------|----------------|
B |----------------|----------------|----------------|----------------|
G |----------------|----------------|----------------|----------------|
D |----------------|------------2---|----------------|------------2---|
A |4-----2---------|----------1-----|4-----2---------|----------1-----|
E |----------4---0-|--4---1-2-------|----------4---0-|--4---1-2-------|

E |----------------|----------------|----------------|----------------|
B |----------------|----------------|----------------|----------------|
G |----------------|----------------|----------------|----------------|
D |----------------|------------2---|----------------|----------------|
A |4-----2---------|----------1-----|4---4-----7-4---|----------------|
E |----------4---0-|--4---1-2-------|------4-5-----7-|0---------------|


http://honestbob.net/
Добавлено: 14.05.2012
Другие материалы по этой песне:

Страница создана 17.04.2012
http://primanota.ru/honest-bob-and-the-factory-to-dealer-incentives/hey-chords.htm
Привет, Гость.
Предлагаем пройти революционный курс по гитаре.
Подарок от PrimaNota.Ru, забирай!