PrimaNota.ru - самый крупный в мире бесплатный архив песенных текстов, аккордов, табулатур и нот


Homestuck - Bl1nd Just1c3 1nv3st1g4t1on - таба, видео

Регистрация Запомнить меня
Войти через:  Facebook Google Twitter Vk Yandex Mail.ru

Homestuck - Bl1nd Just1c3 1nv3st1g4t1on - таба, видео

Печатать
Просмотров: 109
Artist: Homestuck
Song: BL1ND JUST1C3 : 1NV3ST1G4T1ON !!
Album: AlterniaBound
Tabbed by: gustavoaraujo999@hotmail.com

**Drop D is just for the first chords.


== Rhythm == 


0:00
e|-----------------|
B|-----------------|
G|-----------------|
D|-0-------0-------|
A|-0-------0-------|
D|-0-------0-------|


0:10
e|----------------------------------|-------------------------------------|
B|----------------------------------|--------------------------------5----|
G|-----7-----7----------7-----7---5-|-----7-----7----------5-----5--------|
D|---7-----7-----7----7-----7-------|---7-----7-----7----5-----5----------|
A|-5-----5-----5----5-----5-----5---|-5-----5-----5----5-----5-----5------|
D|----------------------------------|-------------------------------------|


0:36 - bass line
e|-------------------------------------------------------------|
B|-------------------------------------------------------------|
G|-------------------------------------------------------------|
D|-------------------------------------------------------------|
A|-5-5-5-5-x-5-5-----------------8-8-8-8-x-8-7-----------------|
D|----------------7-7-7-7-x-7-10----------------7-7-7-7-x-7-7--|


0:58
e|-----------------------------------------------|
B|-----------------------------------------------|
G|-7------7-----7-----9-------9-------9----------|
D|---7------7-----7-----10------10------10-------|
A|-----8------8------------10------10------------|
E|-----------------------------------------------|

e|-----------------------------------------------|
B|-----------------------------------------------|
G|-10-------10-------10-----9-------9-------9----|
D|----12-------12-------12----10------10------10-|
A|-------12-------12-------------10------10------|
E|-----------------------------------------------|

e|-----------------------------------------------|
B|-----------------------------------------------|
G|-7------7-----7-----9-------9-------9----------|
D|---7------7-----7-----10------10------10-------|
A|-----8------8------------10------10------------|
E|-----------------------------------------------|

e|----------------------------12--------17-------|
B|-------------------------------14--------17----|
G|-6-----6-----6-----9--------------14-----------|
D|---7-----7-----7-----11------------------------|
A|-----7-----7------------12---------------------|
E|-----------------------------------------------|


1:26
e|---------------------|----------------------|
B|--------------[x11]--|----------------------|
G|---------------------|----------------------| [x2]
D|---7----7----7----7--|---7----7---7-8-7-5-7-|
A|-5---10----8----7----|-4----5---------------|
E|---------------------|----------------------|


1:54 - bass line
e|-------------------------------------------------------------|
B|-------------------------------------------------------------|
G|-------------------------------------------------------------|
D|-------------------------------------------------------------|
A|-5-5-5-5-x-5-5-----------------8-8-8-8-x-8-7-----------------|
D|----------------7-7-7-7-x-7-10----------------7-7-7-7-x-7-7--|


2:08 - bass line 1/2 step up
e|-------------------------------------------------------------|
B|-------------------------------------------------------------|
G|-------------------------------------------------------------|
D|-------------------------------------------------------------|
A|-6-6-6-6-x-6-6-----------------9-9-9-9-x-9-8-----------------|
D|----------------6-6-6-6-x-6-11----------------8-8-8-8-x-8-8--|


2:22
e|--------------------------------------------------------------------------------|
B|--------------------------------------------------------------------------------|
G|--------------------------------------------------------------------------------|
D|--------------------------------------------------------------------------------|
A|------------------------------------6-6-6-x-6-6-6--8-8-8-x-8-8-8--9-9-9-x-9-9-8-|
D|-9-9-9-x-9-9-9--11-11-11-x-11-11-11---------------------------------------------|

e|--------------------------------------------------------------------------------|
B|--------------------------------------------------------------------------------|
G|--------------------------------------------------------------------------------|
D|--------------------------------------------------------------------------------|
A|------------------------------------6-6-6-x-6-6-6--6-6-6-x-6-6-6--6-6-6-x-6-6-6-|
D|-9-9-9-x-9-9-9--11-11-11-x-11-11-11---------------------------------------------|



== Lead == 

0:00
e|---------------------------------|
B|-15------------------------------|
G|-----14-15--12-14--10-12--9------|
D|---------------------------------|
A|---------------------------------|
E|---------------------------------|


0:43 - main riff
e|-----------------------------------------------------------|
B|-15--------------------------------------------------------|
G|----14--12-14-----14-----14-----14--12-14--14-15-14-12-14--|
D|---------------15-----14-----11----------------------------|
A|-----------------------------------------------------------|
E|-----------------------------------------------------------|

e|-----------------------------------------------------------|
B|--------13-------------------------------------------------|
G|-14------------14-12----12-------14------14-15-14-12-14----|
D|----15-----15--------15----14-11----12---------------------|
A|-----------------------------------------------------------|
E|-----------------------------------------------------------|


0:58
e|-----------------13---15---17-|-------------------------12---17-|
B|-15---15-17---17-15---17---18-|-17-15---15-17---17-14---14---17-|
G|-15---15-17---17--------------|-17-15---15-17---17-14-----------|
D|------------------------------|---------------------------------| [x2]
A|------------------------------|---------------------------------|
E|------------------------------|---------------------------------|


1:25 - solo 1
e|-----------------12-----13-12--------------------------------|
B|-15---13-----15---------------15-13-15-----13-15-15----------|
G|---------14-----------------------------14-------------------|
D|-------------------------------------------------------------|
A|-------------------------------------------------------------|
E|-------------------------------------------------------------| 

e|-------17---------------13-12--------------------------------|
B|-17-18------15-13-15----------15-13-15------13-15------------|
G|-----------------------------------------14------------------|
D|-------------------------------------------------------------|
A|-------------------------------------------------------------|
E|-------------------------------------------------------------|

e|-------------17----20-22---17-15-17--------------------------|
B|-------17-18-------------------------------------------------|
G|-17-19-------------------------------------------------------|
D|-------------------------------------------------------------|
A|-------------------------------------------------------------|
E|-------------------------------------------------------------|

e|-13--12-10-12-10----12-10-----------------------12-----------|
B|-----------------13--------------------13----13----15--------|
G|----------------------------14---12-14----14-----------------|
D|-------------------------------------------------------------|
A|-------------------------------------------------------------|
E|-------------------------------------------------------------|

e|-17>---13--------------12----13>-----------------------------|
B|----------15--------13----13------15--------13---------------|
G|-----------------14------------------14--12------------------|
D|-------------------------------------------------------------|
A|-------------------------------------------------------------|
E|-------------------------------------------------------------|

e|-------------------------------------------------------------|
B|-15----13-15--------13------------15\--\--3--/--10--13--15---|
G|----14--------12-14--------12-14--x--------------------------|
D|------------------------12--------12\--\--0------------------|
A|-------------------------------------------------------------|
E|----------->:?-----------------------------------------------|


2:09 - solo 2
e|---------16--18---16-------------------18--------------------|
B|-19--18---------------19--18--15---16------19--18--15--------| 
G|-------------------------------------------------------15----|
D|-------------------------------------------------------------|
A|-------------------------------------------------------------|
E|-------------------------------------------------------------|

e|-----------------18--22--18----------------------------------|
B|-15--19--18--19----------------------------------------------|
G|-------------------------------------------------------------|
D|-------------------------------------------------------------|
A|-------------------------------------------------------------|
E|-------------------------------------------------------------|


2:23 - outro
e|----------------14--16--18--16-|-19--19-21--9-11--13--14--16--19--23-|
B|-16--16-18--18-----------------|------------|------------------------|
G|-------------------------------|-----------(jump back an octave  )---|
D|-------------------------------|-----------(because the neck ends)---|
A|-------------------------------|-------------------------------------|
E|-------------------------------|-------------------------------------|

== Extras ==

1:19 - intro one octave up
e|-22--17-18--15-17--13-15--12-|
B|-----------------------------|
G|------------------------[x2]-|
D|-----------------------------|
A|-----------------------------|
E|-----------------------------|


2:09 - main riff 1/2 step up
e|-----------------------------------------------------------|
B|-16--------------------------------------------------------|
G|----15--13-15-----15-----15-----15--13-15--15-16-15-13-15--|
D|---------------16-----15-----12----------------------------|
A|-----------------------------------------------------------|
E|-----------------------------------------------------------|

e|-----------------------------------------------------------|
B|--------14-------------------------------------------------|
G|-15------------15-13----13-------15------15-16-15-13-15----|
D|----16-----16--------16----15-12----13---------------------|
A|-----------------------------------------------------------|
E|-----------------------------------------------------------|
Добавлено: 28.11.2015
Другие материалы по этой песне:
  • Аккорды и текст

Страница создана 28.11.2015
http://primanota.ru/homestuck/bl1nd-just1c3-1nv3st1g4t1on-chords.htm
Привет, Гость.
Предлагаем пройти революционный курс по гитаре.
Подарок от PrimaNota.Ru, забирай!