PrimaNota.ru - самый крупный в мире бесплатный архив песенных текстов, аккордов, табулатур и нот


Homeshake - What Did He Look Like - таба, видео

Регистрация Запомнить меня
Войти через:  Facebook Google Twitter Vk Yandex Mail.ru

Homeshake - What Did He Look Like - таба, видео

Печатать
Просмотров: 64
Новый альбом группы 'Черный Кузнец' по культовому сериалу 'Сверхъестественное'!
-------------------------------------------------------------------------------
                             WHAT DID HE LOOK LIKE - HOMESHAKE
-------------------------------------------------------------------------------
Tabbed by: Noah Moody
E-mail: Noahmoody1228@gmail.com

Tuning: STANDARD

e|-----------8---10b-10--8--10--12--15----13-------------------8--10b-10--8--10--12-------|
B|--10---8h10-------------------------------13----15br----8h10----------------------------|
G|----9----------------------------------------14-----------------------------------12----|(X3)
D|----------------------------------------------------------------------------------------|
A|----------------------------------------------------------------------------------------|
E|----------------------------------------------------------------------------------------|

e|-----------8---10b-10--8--10--12--15----13------------|
B|--10---8h10-------------------------------13----15br--|
G|----9----------------------------------------14-------|
D|------------------------------------------------------|
A|------------------------------------------------------|
E|------------------------------------------------------|



************************************

| /   slide up
| \   slide down
| h   hammer-on
| p   pull-off
| ~   vibrato
| +   harmonic
| x   Mute note
| b   Bend
| pb  Pre-bend
| br  Bend release
| pbr Pre-bend release
| brb Bend release bend

************************************
Добавлено: 15.02.2018
Другие материалы по этой песне:
  • Аккорды и текст

Страница создана 15.02.2018
http://primanota.ru/homeshake/what-did-he-look-like-chords.htm
Привет, Гость.
Предлагаем пройти революционный курс по гитаре.
Подарок от PrimaNota.Ru, забирай!