PrimaNota.ru - самый крупный в мире бесплатный архив песенных текстов, аккордов, табулатур и нот


Homeshake - She Cant Leave Me Here Alone Tonight - бас-таба, видео

Регистрация Запомнить меня
Войти через:  Facebook Google Twitter Vk Yandex Mail.ru

Homeshake - She Cant Leave Me Here Alone Tonight - бас-таба, видео

Печатать
Просмотров: 49
-------------------------------------------------------------------------------
               SHE CAN'T LEAVE ME HERE ALONE TONIGHT - Homeshake
-------------------------------------------------------------------------------
Tabbed by: Santiago
E-mail: -----

Tuning:Standard

First tab so any comments would be much appreciated.
Amazing band, easy song.

Part I (play the 8/ 1st time):

G|-----------------------------|
D|-----------------------------| x6
A|(8\)--3--5----6--5-----------| 
E|-----------------------------|


Part II:

G|-------------------------------------------------|
D|---3-3-3-3-3--3-3-3-3-3--3-3-3-3-3--3-3-3-3-30---|
A|3------------------------------------------------|
E|-------------------------------------------------|


Part III (same as Part I with a little fill and minus the 8/):

G|---------------------------------5--|
D|--------------------------------3---| 
A|3--5----6--5----3--5----6--5--3-----| 
E|------------------------------------|

G|------------------|
D|------------------| x4
A|3--5----6--5------| 
E|------------------|


Part IV (same as Part II, just gets higher as it goes on):

G|---------------------------------------------------------------------------|
D|---3-3-3-3-3--3-3-3-3-3--3-3-3-3-3--3-3-3-3-3--3-3-3-3-3--3-3-3-3-3--5-5-5-|
A|3--------------------------------------------------------------------------|
E|---------------------------------------------------------------------------|

G|-----------------|
D|5-5--8-8-10-8-2--| (it's a 10)
A|-----------------|
E|-----------------|


Part V (Outro):

G|------------------|
D|------------------|
A|3--5----6--5------| 
E|------------------|

| /  slide up
| \  slide down
| h  hammer-on
| p  pull-off
| ~  vibrato
| +  harmonic
| x  Mute note
===============================================================================
Добавлено: 14.10.2015
Другие материалы по этой песне:
  • Аккорды и текст

Страница создана 14.10.2015
http://primanota.ru/homeshake/she-cant-leave-me-here-alone-tonight-chords.htm
Привет, Гость.
Предлагаем пройти революционный курс по гитаре.
Подарок от PrimaNota.Ru, забирай!