PrimaNota.ru - самый крупный в мире бесплатный архив песенных текстов, аккордов, табулатур и нот


Homeshake - See Ya - бас-таба, видео

Регистрация Запомнить меня
Войти через:  Facebook Google Twitter Vk Yandex Mail.ru

Homeshake - See Ya - бас-таба, видео

Печатать
Просмотров: 27
-------------------------------------------------------------------------------
                                SEE YA - HOMESHAKE
-------------------------------------------------------------------------------
Tabbed by: Evan
E-mail: 

This is some vintage bad stuff.

The tabs are listed as parts. At the very bottom is the order.

Tuning: Standard

Groove
G|--------------------|
D|-------------0------|
A|---03-3-------2-0---|
E|1---------1---------|

Verse
G|----------------------------2------53-0|
D|----2-0--------20------53-53---3-------|
A|---3---3---03------03-----------3------|
E|1-------0------------------------------|

Chorus 1
G|-----------------------------------|
D|--2/1----53-5------2--23-----------|
A|2-----0-----------3-------3--3---3-|
E|---------------3-----------1---0---|

Chorus 2
G|----------------------2----5-3-|
D|--2/1----53------53-53--5------|
A|2-----0------------------3-----|
E|------------1/6----------------|

Order:
Groove x2
Verse x2
Chorus 1 x2
Chorus 2
Groove x2
Verse x2
Chorus 1 x2
Chorus 2
Groove
-END-

That's all! See any errors feel free to comment.



| /  slide up
| \  slide down
| h  hammer-on
| p  pull-off
| ~  vibrato
| +  harmonic
| x  Mute note
===============================================================================
Добавлено: 04.06.2016
Другие материалы по этой песне:
  • Аккорды и текст

Страница создана 04.06.2016
http://primanota.ru/homeshake/see-ya-chords.htm
Привет, Гость.
Предлагаем пройти революционный курс по гитаре.
Подарок от PrimaNota.Ru, забирай!