PrimaNota.ru - самый крупный в мире бесплатный архив песенных текстов, аккордов, табулатур и нот


Homeshake - Okay - таба, бас-таба, видео

Регистрация Запомнить меня
Войти через:  Facebook Google Twitter Vk Yandex Mail.ru

Homeshake - Okay - таба, бас-таба, видео

Печатать
Просмотров: 109
-------------------------------------------------------------------------------
                             Okay - Homeshake
-------------------------------------------------------------------------------
Tabbed by: Ron Hambone

Tuning: Standard


Main Chords:
e|---5---5---3---3---0---|               
B|---5---4---3---1---1---|               
G|---5---5---4---2---2---| 
D|-----------------------|                
A|-----------------------|               
E|-----------------------|                


Intro:
(0:15-0:45)
e|---------------------------------------------------10-----------------------12---|
B|---------------------10-12-12-------------------------12-12-10-10-----10-12------|
G|-----12-11---9-11-12----------------12-11---9-11-9----------------12-------------|
D|---9------------------------------9----------------------------------------------|
A|---------------------------------------------------------------------------------|
E|---------------------------------------------------------------------------------|


(1:12-1:41)
e|---------------------------|                e|--------------------10-10---|
B|-------------10-10-12-12---|                B|-----------10-12-12---------|
G|---9-9-12-12---------------| Repeat 7x then G|---9-12-12------------------|
D|---------------------------|                D|----------------------------| 
A|---------------------------|                A|----------------------------|
E|---------------------------|                E|----------------------------|


Outro:
(2:36-3:08)
e|--------------------------------------------------------10-12----10--------------------------14---|
B|---------------------10--12b13br12----------------------------12----10b11br10----------10-12------|
G|-----12-11---9-11-12---------------------12-11---9-11-9-----------------------12-11-12------------|
D|---9-----------------------------------9----------------------------------------------------------|
A|--------------------------------------------------------------------------------------------------|
E|--------------------------------------------------------------------------------------------------|


************************************

| /   slide up
| \   slide down
| h   hammer-on
| p   pull-off
| ~   vibrato
| +   harmonic
| x   Mute note
| b   Bend
| pb  Pre-bend
| br  Bend release
| pbr Pre-bend release
| brb Bend release bend

************************************
Добавлено: 04.06.2016
Другие материалы по этой песне:
  • Аккорды и текст

Страница создана 14.10.2015
http://primanota.ru/homeshake/okay-chords.htm
Привет, Гость.
Предлагаем пройти революционный курс по гитаре.
Подарок от PrimaNota.Ru, забирай!