PrimaNota.ru - самый крупный в мире бесплатный архив песенных текстов, аккордов, табулатур и нот


Homeshake - Northern Man - таба, видео

Регистрация Запомнить меня
Войти через:  Facebook Google Twitter Vk Yandex Mail.ru

Homeshake - Northern Man - таба, видео

Печатать
Просмотров: 46
Новый альбом группы 'Черный Кузнец' по культовому сериалу 'Сверхъестественное'!
[Intro:]

Guitar 1
e|--------------------|--------------------|--------------------|--------------------|
B|--8--8--8--8--8--8--|--8--8--8--8--8--8--|--8--8--8--8--8--8--|--8--8--8--8--8--8--|
G|--7--7--7--7--7--7--|--7--7--7--7--7--7--|--7--7--7--7--7--7--|--7--7--7--7--7--7--| x 2
D|--8--8--8--8--8--8--|--8--8--8--8--8--8--|--8--8--8--8--8--8--|--8--8--8--8--8--8--|
A|--7--7--7--7--7--7--|--7--7--7--7--7--7--|--7--7--7--7--7--7--|--7--7--7--7--7--7--|
E|--------------------|--------------------|--------------------|--------------------|
 |
 |
 |Guitar 2 (Heavy on the whammy bar)
e|--------------------|--------------------|--------------------|--------------------|
B|--8-----------------|--------------------|--8-----------------|--------------------|
G|--7-----------------|--------------------|--7-----------------|--------------------| x 2
D|--8-----------------|--------------------|--8-----------------|--------------------|
A|--7-----------------|--------------------|--7-----------------|--------------------|
E|--------------------|--------------------|--------------------|--------------------|


[Chorus/mani riff ]
Guitar 1
e|-------5----|----------|-----5----8---|---------|
B|--8---------|--6-------|--8-----------|--1------|
G|--7---------|--7-------|--7-----------|--2------| x 4
D|--8---------|--6-------|--8-----------|--3------|
A|------------|----------|--------------|---------|
E|------------|----------|--------------|---------|
 |
 | Guitar 2  
 |   C9           Bb7        C9             F
e|------------|----------|--------------|---------|
B|--8---------|--6-------|--8-----------|--1------|
G|--7---------|--7-------|--7-----------|--2------| x 4
D|--8---------|--6-------|--8-----------|--3------|
A|--7---------|--8-------|--7-----------|--x------|
E|--8---------|--6-------|--8-----------|--1------|

[Verse:]

Guitar 1 (no 2nd guitar)
   Am
e|--5-------------------|--5-------------------|--5-------------------|
B|-----5----------------|-----5----------------|-----5----------------|
G|--------5-------------|--------5-------------|--------5-------------|
D|-----------------7----|-----------------7----|-----------------7----|
A|----------------------|----------------------|----------------------|
E|----------------------|----------------------|----------------------|

e|--5-------------------|--5-------------------|--5-------------------|
B|-----5----------------|-----5----------------|-----5----------------|
G|--------5-------------|--------5-------------|--------5-------------|
D|-----------------7----|-----------------7----|-----------------7----|
A|----------------------|----------------------|----------------------|
E|----------------------|----------------------|----------------------|

    B7                     Dm                      E
e|----------------------|--------10-------13---|--12------------------|
B|--------------9-------|--10------------------|-----12---------------|
G|-----7--10------------|-----10---------------|--------13------------|
D|--8-------------------|----------------------|----------------------|
A|----------------------|----------------------|----------------------|
E|----------------------|----------------------|----------------------|

  Am
e|--17------------------|----------------------|--5-------------------|
B|-----17---------------|--17------------------|-----5----------------|
G|--------17------------|-----17---------------|--------5-------------|
D|----------------------|--------19------------|-----------------7----|
A|----------------------|----------------------|----------------------|
E|----------------------|----------------------|----------------------|

                          B7                      Dm
e|--5-------------------|----------------------|--------10-------13---|
B|-----5----------------|--------------9-------|--10------------------|
G|--------5-------------|-----7--10------------|-----10---------------|
D|-----------------7----|--8-------------------|----------------------|
A|----------------------|----------------------|----------------------|
E|----------------------|----------------------|----------------------|

   E                      Am
e|--12------------------|--17------------------|----------------------|
B|-----12---------------|-----17---------------|--17------------------|
G|--------13------------|--------17------------|-----17---------------|
D|----------------------|----------------------|--------20------------|
A|----------------------|----------------------|----------------------|
E|----------------------|----------------------|----------------------|

[Chorus:]
Guitar 1
e|-------5----|----------|-----5----8---|---------|
B|--8---------|--6-------|--8-----------|--1------|
G|--7---------|--7-------|--7-----------|--2------| x 4
D|--8---------|--6-------|--8-----------|--3------|
A|------------|----------|--------------|---------|
E|------------|----------|--------------|---------|
 |Guitar 2 
 |  C9           Bb7        C9             F
e|------------|----------|--------------|---------|
B|--8---------|--6-------|--8-----------|--1------|
G|--7---------|--7-------|--7-----------|--2------| x 4
D|--8---------|--6-------|--8-----------|--3------|
A|--7---------|--8-------|--7-----------|--x------|
E|--8---------|--6-------|--8-----------|--1------|

[Verse 2:]

Guitar 1 (no 2nd guitar)
   Am
e|--5-------------------|--5-------------------|--5-------------------|
B|-----5----------------|-----5----------------|-----5----------------|
G|--------5-------------|--------5-------------|--------5-------------|
D|-----------------7----|-----------------7----|-----------------7----|
A|----------------------|----------------------|----------------------|
E|----------------------|----------------------|----------------------|

e|--5-------------------|--5-------------------|--5-------------------|
B|-----5----------------|-----5----------------|-----5----------------|
G|--------5-------------|--------5-------------|--------5-------------|
D|-----------------7----|-----------------7----|-----------------7----|
A|----------------------|----------------------|----------------------|
E|----------------------|----------------------|----------------------|
 
   B7                     Dm                      E
e|----------------------|--------10-------13---|--12------------------|
B|--------------9-------|--10------------------|-----12---------------|
G|-----7--10------------|-----10---------------|--------13------------|
D|--8-------------------|----------------------|----------------------|
A|----------------------|----------------------|----------------------|
E|----------------------|----------------------|----------------------|

   Am   
e|--17------------------|----------------------|--5-------------------|
B|-----17---------------|--17------------------|-----5----------------|
G|--------17------------|-----17---------------|--------5-------------|
D|----------------------|--------19------------|-----------------7----|
A|----------------------|----------------------|----------------------|
E|----------------------|----------------------|----------------------|

                          B7                      Dm
e|--5-------------------|----------------------|--------10-------13---|
B|-----5----------------|--------------9-------|--10------------------|
G|--------5-------------|-----7--10------------|-----10---------------|
D|-----------------7----|--8-------------------|----------------------|
A|----------------------|----------------------|----------------------|
E|----------------------|----------------------|----------------------|

   E                      Am
e|--12------------------|--17------------------|----------------------|
B|-----12---------------|-----17---------------|--17------------------|
G|--------13------------|--------17------------|-----17---------------|
D|----------------------|----------------------|--------20------------|
A|----------------------|----------------------|----------------------|
E|----------------------|----------------------|----------------------|

[Chorus:]
 Guitar 1
e|-------5----|----------|-----5----8---|---------|
B|--8---------|--6-------|--8-----------|--1------|
G|--7---------|--7-------|--7-----------|--2------| x 6
D|--8---------|--6-------|--8-----------|--3------|
A|------------|----------|--------------|---------|
E|------------|----------|--------------|---------|
 |Guitar 2 
 |  C9           Bb7        C9             F
e|------------|----------|--------------|---------|
B|--8---------|--6-------|--8-----------|--1------|
G|--7---------|--7-------|--7-----------|--2------| x 6
D|--8---------|--6-------|--8-----------|--3------|
A|--7---------|--8-------|--7-----------|--x------|
E|--8---------|--6-------|--8-----------|--1------|

[Outro:]

e|--5-------------------|            e|--5-------------|
B|-----5----------------|            B|--5-------------|
G|--------5-------------| x8    then G|--5-------------|
D|-----------------7----|            D|--7-------------|
A|----------------------|            A|----------------|
E|----------------------|            E|----------------|
Добавлено: 15.02.2018
Другие материалы по этой песне:
  • Аккорды и текст

Страница создана 15.02.2018
http://primanota.ru/homeshake/northern-man-chords.htm
Привет, Гость.
Предлагаем пройти революционный курс по гитаре.
Подарок от PrimaNota.Ru, забирай!