PrimaNota.ru - самый крупный в мире бесплатный архив песенных текстов, аккордов, табулатур и нот


Homeshake - Moon Woman - таба, видео

Регистрация Запомнить меня
Войти через:  Facebook Google Twitter Vk Yandex Mail.ru

Homeshake - Moon Woman - таба, видео

Печатать
Просмотров: 231
-------------------------------------------------------------------------------
                           Moon Woman - Homeshake
-------------------------------------------------------------------------------

Tuning: Standard

Really emphasize those bends

Guitar 1:

Intro/Verse:

e|----------------------|           e|--------------------------12--12--10------|
B|---------10--10b--10--| 7x        B|---------10--10b--10------------------12--|
G|--9--12---------------|           G|--9--12---------------12------------------|
D|----------------------|           D|------------------------------------------|
A|----------------------|           A|------------------------------------------|
E|----------------------|           E|------------------------------------------|

e|----------------------|           e|--------------------------12--12--10------|
B|---------10--10b--10--| 7x        B|---------10--10b--10------------------12--|
G|--9--12---------------|           G|--9--12---------------12------------------|
D|----------------------|           D|------------------------------------------|
A|----------------------|           A|------------------------------------------|
E|----------------------|           E|------------------------------------------|

e|----------------------|           e|--------------------------12--12--10------|
B|---------10--10b--10--| 7x        B|---------10--10b--10------------------12--|
G|--9--12---------------|           G|--9--12---------------12------------------|
D|----------------------|           D|------------------------------------------|
A|----------------------|           A|------------------------------------------|
E|----------------------|           E|------------------------------------------|

e|----------------------|           e|--------------------------12--12--10------|
B|---------10--10b--10--| 7x        B|---------10--10b--10------------------12--|
G|--9--12---------------|           G|--9--12---------------12------------------|
D|----------------------|           D|------------------------------------------|
A|----------------------|           A|------------------------------------------|
E|----------------------|           E|------------------------------------------|

Guitar break

Chorus:

e|---------------------------------------------------------------------------|
B|--12--10------------12-12--10----------------------------------------------|
G|----------12----9--------------12--9---------------------------------------|
D|---------------------------------------------------------------------------|   4x
A|---------------------------------------------------------------------------|
E|---------------------------------------------------------------------------|

Solo

Verse:

e|----------------------|           e|--------------------------12--12--10------|
B|---------10--10b--10--| 7x        B|---------10--10b--10------------------12--|
G|--9--12---------------|           G|--9--12---------------12------------------|
D|----------------------|           D|------------------------------------------|
A|----------------------|           A|------------------------------------------|
E|----------------------|           E|------------------------------------------|

e|----------------------|           e|--------------------------12--12--10------|
B|---------10--10b--10--| 7x        B|---------10--10b--10------------------12--|
G|--9--12---------------|           G|--9--12---------------12------------------|
D|----------------------|           D|------------------------------------------|
A|----------------------|           A|------------------------------------------|
E|----------------------|           E|------------------------------------------|

e|----------------------|           e|--------------------------12--12--10------|
B|---------10--10b--10--| 7x        B|---------10--10b--10------------------12--|
G|--9--12---------------|           G|--9--12---------------12------------------|
D|----------------------|           D|------------------------------------------|
A|----------------------|           A|------------------------------------------|
E|----------------------|           E|------------------------------------------|

e|----------------------|           e|--------------------------12--12--10------|
B|---------10--10b--10--| 7x        B|---------10--10b--10------------------12--|
G|--9--12---------------|           G|--9--12---------------12------------------|
D|----------------------|           D|------------------------------------------|
A|----------------------|           A|------------------------------------------|
E|----------------------|           E|------------------------------------------|

e|---------------------------------------------------------------------------|
B|--12-10-12-10-12-10-12-10--------------------------------------------------|
G|---------------------------------------------------------------------------|
D|---------------------------------------------------------------------------|
A|---------------------------------------------------------------------------|
E|---------------------------------------------------------------------------|

Chorus:

e|---------------------------------------------------------------------------|
B|--12--10------------12-12--10----------------------------------------------|
G|----------12----9--------------12--9---------------------------------------|
D|---------------------------------------------------------------------------|   4x
A|---------------------------------------------------------------------------|
E|---------------------------------------------------------------------------|

Outro:

e|----------------------|           e|-----------------10-----------------------|
B|---------10--10b--10--| 7x        B|---------10--12------12-------------------|
G|--9--12---------------|           G|--9--12-----------------------------------|
D|----------------------|           D|------------------------------------------|
A|----------------------|           A|------------------------------------------|
E|----------------------|           E|------------------------------------------|

Guitar 2:

Listen for spacing

Intro/Verse:

e|--5------------------------------------------------------------------------|
B|--5------------------------------------------------------------------------|
G|--5------------------------------------------------------------------------|
D|--7------------------------------------------------------------------------|
A|--7---------------------------9--9--7--------------------------------------|
E|--5------------------------------------------------------------------------|

e|--3---3----5---------|
B|--3---3----5---------|
G|--4---4----5---------|
D|--5---5----7---------|   4x
A|--5---5----7---------|
E|--3---3----5---------|

Guitar break

Chorus:

e|--2--------------------------2---------------------------------------------|
B|--3-------1------1-----------3---------------------------------------------|
G|--4--0-0--2--0-0-2--0--------2---------------------------------------------| 4x
D|--4--2-2--2--2-2-2--2------------------------------------------------------|
A|--2--2-2-----2-2----2------------------------------------------------------|
E|--2------------------------------------------------------------------------|

Solo:

e|--5--|
B|--5--|
G|--5--|
D|--7--|
A|--7--|
E|--5--|

e|--3---3----5---------|
B|--3---3----5---------|
G|--4---4----5---------|
D|--5---5----7---------|   2x
A|--5---5----7---------|
E|--3---3----5---------|

Verse:

e|--3---3----5---------|
B|--3---3----5---------|
G|--4---4----5---------|
D|--5---5----7---------|   4x
A|--5---5----7---------|
E|--3---3----5---------|

Break for Second Guitar

Chorus:

e|--2--------------------------2---------------------------------------------|
B|--3-------1------1-----------3---------------------------------------------|
G|--4--0-0--2--0-0-2--0--------2---------------------------------------------| 4x
D|--4--2-2--2--2-2-2--2------------------------------------------------------|
A|--2--2-2-----2-2----2------------------------------------------------------|
E|--2------------------------------------------------------------------------|

Outro:

e|--5--|
B|--5--|
G|--5--|
D|--7--|   3x
A|--7--|
E|--5--|

lyrics:

Here I am lonely out on the street
Know one's around to see
The dust and the salt have covered my feet
And then she came round to me
Her hair is so long and her eyes are so smooth
The words that she speaks are true
I'm feeling this lonely but she's feeling good
She does what she wants to do
She's so cool
She's a moon woman she's in my heart
She's a cruel woman she has her fun
She's a moon woman she's in my heart
She's a cruel woman at least so far
(Give me some of that baby, ok ok)
I'm all over that where did she go
Her case makes my bones so cold
She knows everything that I'll ever know
Her body is cast in gold
My baby's got other things on her mind
Where no one's allowed inside
It's okay with me I'll take in her view
She's all that I want to do
She's so cool
She's a moon woman she's in my heart
She's a cruel woman she has her fun
She's a moon woman she's in my heart
She's a cruel woman at least so far

************************************

| /   slide up
| \   slide down
| h   hammer-on
| p   pull-off
| ~   vibrato
| +   harmonic
| x   Mute note
| b   Bend
| pb  Pre-bend
| br  Bend release
| pbr Pre-bend release
| brb Bend release bend

************************************
Добавлено: 07.08.2015
Другие материалы по этой песне:
  • Аккорды и текст

Страница создана 07.08.2015
http://primanota.ru/homeshake/moon-woman-chords.htm
Привет, Гость.
Предлагаем пройти революционный курс по гитаре.
Подарок от PrimaNota.Ru, забирай!