PrimaNota.ru - самый крупный в мире бесплатный архив песенных текстов, аккордов, табулатур и нот


Homeshake - Michael - таба, видео

Регистрация Запомнить меня
Войти через:  Facebook Google Twitter Vk Yandex Mail.ru

Homeshake - Michael - таба, видео

Печатать
Просмотров: 94
Уроки эстрадного вокала в Санкт-Петербурге
-------------------------------------------------------------------------------
                             Micheal - Homeshake
-------------------------------------------------------------------------------
Tabbed by: Ron Hambone


Tuning: Standard

e|--15----------------------------------------------------------------------------------------------------|
B|--------------------------------------------------------------------------------------------------------|
G|----12--14--12-14-12-141414--12--14--12-14-12-141414--12--14--12-14-12-141414--12--14--12-14-12-141414--|
D|--------------------------------------------------------------------------------------------------------|
A|--------------------------------------------------------------------------------------------------------|
E|--------------------------------------------------------------------------------------------------------|

e|------------------------------------------------------------------------------------------------------|
B|------------------------------------------------------------------------------------------------------|
G|--12--14--12-14-12-141414--12--14--12-14-12-141414--12--14--12-14-12-141414--12--14--12-14-12-141414--|
D|------------------------------------------------------------------------------------------------------|
A|------------------------------------------------------------------------------------------------------|
E|------------------------------------------------------------------------------------------------------|

e|--15-------------------------------------------------------|
B|-----------------------------------------------------------|
G|----12--14--12-14-12-141414-12---12-14----12-14-12-141414--| Repeat 2x
D|-------------------------------14------14------------------|
A|-----------------------------------------------------------|
E|-----------------------------------------------------------|

e|-----------------------------------------------------------------|
B|--13/15-13/15----------------------------------------------------|
G|--------------14--12-14-12-141414-12---12-14----12-14-12-141414--|
D|-------------------------------------14------14------------------|
A|-----------------------------------------------------------------|
E|-----------------------------------------------------------------|

e|--15-------------------------------------------------------|
B|-----------------------------------------------------------|
G|----12--14--12-14-12-141414-12---12-14----12-14-12-141414--|
D|-------------------------------14------14------------------|
A|-----------------------------------------------------------|
E|-----------------------------------------------------------|

e|--15---13-------15-13----15-13-----|               e|--15---13-------15-13----15-13/15--|
B|-----------13---------13-------13--|               B|-----------13---------13-----------|
G|-----------------------------------| Repeat 3x     G|-----------------------------------|
D|-----------------------------------|               D|-----------------------------------|
A|-----------------------------------|               A|-----------------------------------|
E|-----------------------------------|               E|-----------------------------------|

e|----------------------------------------------------------------|
B|----------------------------------------------------------------|
G|--10/12--141414--12-14-12-141414-12---12-14----12-14-12-141414--|
D|------------------------------------14------14------------------|
A|----------------------------------------------------------------|
E|----------------------------------------------------------------|

e|--15-------------------------------------------------------|
B|-----------------------------------------------------------|
G|----12--14--12-14-12-141414-12---12-14----12-14-12-141414--|
D|-------------------------------14------14------------------|
A|-----------------------------------------------------------|
E|-----------------------------------------------------------|

e|-----------------------------------------------------------------|
B|--13/15-13/15----------------------------------------------------|
G|--------------14--12-14-12-141414-12---12-14----12-14-12-141414--|
D|-------------------------------------14------14------------------|
A|-----------------------------------------------------------------|
E|-----------------------------------------------------------------|

e|--15-------------------------------------------------------|
B|-----------------------------------------------------------|
G|----12--14--12-14-12-141414-12---12-14----12-14-12-141414--|
D|-------------------------------14------14------------------|
A|-----------------------------------------------------------|
E|-----------------------------------------------------------|

e|--15---13-------15-13----15-13-----|               e|--15---13-------15-13----15-13-----15-13/15--|
B|-----------13---------13-------13--|               B|-----------13---------13-------13------------|
G|-----------------------------------| Repeat 6x     G|---------------------------------------------|
D|-----------------------------------|               D|---------------------------------------------|
A|-----------------------------------|               A|---------------------------------------------|
E|-----------------------------------|               E|---------------------------------------------|
            
e|----------------------------------------------------------------|
B|----------------------------------------------------------------|
G|--10/12--141414--12-14-12-141414-12---12-14----12-14-12-141414--|
D|------------------------------------14------14------------------|
A|----------------------------------------------------------------|
E|----------------------------------------------------------------| 
              
e|--15--------------------------------------------------------------|
B|------------------------------------------------------------------|
G|----12--141414--12-14-12-141414-12---12-141414-12------12b13br12--|
D|-----------------------------------14-----------------------------|
A|------------------------------------------------------------------|
E|------------------------------------------------------------------|




************************************

| /   slide up
| \   slide down
| h   hammer-on
| p   pull-off
| ~   vibrato
| +   harmonic
| x   Mute note
| b   Bend
| pb  Pre-bend
| br  Bend release
| pbr Pre-bend release
| brb Bend release bend

************************************
Добавлено: 14.10.2015
Другие материалы по этой песне:
  • Аккорды и текст

Страница создана 14.10.2015
http://primanota.ru/homeshake/michael-chords.htm
Привет, Гость.
Предлагаем пройти революционный курс по гитаре.
Подарок от PrimaNota.Ru, забирай!